Oops, an error
Loading. Please wait.

Got On My Skateboard chords

by Skegss
3,472 views 111 this week
1 commentread comment
1 2 3 4 5
x 21
add to favorites
×
Save as Personal and add changes to this tab that will be seen only by you. Learn more ›
×
You can save this tab as Personal to edit and correct it or add notes. All changes will be seen only by you. Learn more »
launch autoscroll
font size
0
reset
transpose
0
reset
display chords
guitar tuner
edit
Autoscroll
slow
fast
+/-
esc
set tempo
stop
Author
Strumming
There is no strumming pattern for this song yet. and get +5 IQ
SONG:   GOT ON MY SKATEBOARD
ARTIST: SKEGSS
TAB BY: DON CZARSKI
EMAIL:  GUITARZAN7@HOTMAIL.COM


                    GOT ON MY SKATEBOARD
                           SKEGSS

NOTE: This was a request to make a chord tab of this
      song in standard tuning. 


      The INTRO can be played instead of the chords if
      you want to for alll the VERSES.

INTRO: (Play 2x's)

   G
E|---------------------------------|
B|---------------------------------|
G|---------------------------------|
D|---2---2---2---2---0---0---0---0-|
A|---------------------------------|
E|-3---3---3---3---3---3---3---3---|

   G
E|---------------------------------|
B|---------------------------------|
G|---------------------------------|
D|---2---2---2---2---0---0---0---0-|
A|---------------------------------|
E|-3---3---3---3---3---3---3---3---|

   Em                              D
E|------------------------------------------------------------------|
B|------------------------------------------------------------------|
G|------------------------------------------------------------------|
D|-----------------------------------0---0---0---0----0---0---0---0-|
A|---2---2---2---2---2---2---2---2------------------2---2---2---0---|
E|-0---0---0---0---0---0---0---0---3---3---3---3--------------------|


                =============== THEN ================

G      Em   D


VERSE:
G                                
 Got on my skateboard 
             Em
And began to-oo 
           D            
Push away-ay 
             G
From my hou-ouse

 G
Went with the wind 
               Em
The day was di-im 

And I was sure 
D                           G
It was coming from the sou-outh

 G
Had a jacket 
              Em
In my back-pa-ack 
             D
I threw it o-on 
                          G
'Cause it was blowing co-old

  G
Caught a glimpse 
                  Em
Of the setting su-un
                  D
The day's not do-one 
                     C
And I'm feeling lo-o-ow


CHORUS:
C        G          Bm       C
I guess I'm not getting any younger
       G     Bm                C
Life flashes by just while we wonder

C        G              Bm   C
I guess I'm not getting any younger, younger
  C                               G   
Young once and you're old forever-er

G     Em  D


VERSE:
 G                                
Got on my skateboard 
             Em
And began to-oo 
          D            
Push away-ay 
             G
From my hou-ouse

 G
Went with the wind 
               Em
The day was di-im 

And I was sure 
D                           G
It was coming from the sou-outh

 G
Had a jacket 
              Em
In my back-pa-ack 
             D
I threw it o-on 
                          G
'Cause it was blowing co-old

  G
Caught a glimpse 
                  Em
Of the setting su-un
                  D
The day's not do-one 
                     C
And I'm feeling lo-o-ow


CHORUS:
C        G          Bm       C
I guess I'm not getting any younger
       G         Bm            C
Life flashes by just while we wonder

C        G              Bm   C
I guess I'm not getting any younger, younger
  C                               G   
Young once and you're old forever-er


OUTRO: (Play 2x's)
   G
E|---------------------------------|
B|---------------------------------|
G|---------------------------------|
D|---2---2---2---2---0---0---0---0-|
A|---------------------------------|
E|-3---3---3---3---3---3---3---3---|

   G
E|---------------------------------|
B|---------------------------------|
G|---------------------------------|
D|---2---2---2---2---0---0---0---0-|
A|---------------------------------|
E|-3---3---3---3---3---3---3---3---|

   Em                              D
E|------------------------------------------------------------------|
B|------------------------------------------------------------------|
G|------------------------------------------------------------------|
D|-----------------------------------0---0---0---0----0---0---0-----|
A|---2---2---2---2---2---2---2---2------------------2---2---2---0---|
E|-0---0---0---0---0---0---0---0---3---3---3---3--------------------|


========================= LYRICS ==========================

NOTE: Here are just the lyrics ... without any altercations.
      Thanks to That_Ship for providing them.

VERSE:                                
Got on my skateboard             
And began to 
Push away             
From my house

Went with the wind               
The day was dim 
And I was sure                            
It was coming from the south

Had a jacket              
In my backpack             
I threw it on                          
'Cause it was blowing cold

Caught a glimpse                  
Of the setting sun                  
The day's not done                      
And I'm feeling low


CHORUS:
I guess I'm not getting any younger
Life flashes by just while we wonder

I guess I'm not getting any younger, younger
Young once and you're old forever


VERSE:                            
Got on my skateboard             
And began to 
Push away             
From my house

Went with the wind               
The day was dim 
And I was sure                            
It was coming from the south

Had a jacket              
In my backpack             
I threw it on                          
'Cause it was blowing cold

Caught a glimpse                  
Of the setting sun                  
The day's not done                      
And I'm feeling low

CHORUS:
I guess I'm not getting any younger
Life flashes by just while we wonder

I guess I'm not getting any younger, younger
Young once and you're old forever
                    =================

Also, special thanks to ayreon77 for helping me with the INTRO.

            
            
Suggest correction
Creating personal tab
Creating personal tab
You can edit any tab online and save it as your Personal.

You can edit, replace or remove any tab part or add personal notes – all changes will be seen only by you.

Personal tabs can be accessed anytime from any device, even offline.
Learn more »
comments
print report bad tab
1 comment total.
0 reply
jimmyvlieshou2 10 May 03, 2017 01:22 PM

nice dude

guest
You may want to rate the tab now too:
select rating
Wanna post a correction for this tab? Suggest correction