Oops, an error
Loading. Please wait.

Stranger tab

by Skegss
784 views 15 this week
no commentswrite comment
1 2 3 4 5
2 more votes to show rating
add to favorites
×
Save as Personal and add changes to this tab that will be seen only by you. Learn more ›
×
You can save this tab as Personal to edit and correct it or add notes. All changes will be seen only by you. Learn more »
launch autoscroll
font size
0
reset
how to read this tab
guitar tuner
edit
Autoscroll
slow
fast
+/-
esc
set tempo
stop
About this tab version
It has lead guitar tabs which none of the others do. Was this info helpful? Yes No
"Stranger"
Skegss (2016)
https://www.youtube.com/watch?v=Cy5P4ZlrurE (for now the only utube vid out)

[Intro]
{Rhythm Guitar}

D  F#m x2

{Lead Guitar}

  D                 F#m           D                       F#m
e------|-----------|-------|-----|-------|---------------|--------|
B------|-----------|-------|-----|-------|---------------|--------|
G------|-----------|-------|-----|-------|---------------|--------|
D------|-----------|-------|-----|-------|------------9--|--------|
A-5----|---5--7--9-|-------|-----|-5-----|----/9--12-----|--------|
E------|-----------|-9-----|-----|-------|---------------|-9------|


[Verse]
{Rhythm Guitar}

D 
This day is getting older
                F#m
And I'm getting older too
D
Everything is changing
             F#m
As I'm aging in these shoes
D
I remember saying
                F#m
To my self that I would always smile
D
No matter what my state is
                   F#m
No matter what the day is like

{Lead Guitar}

  D                 F#m           D                       F#m
e------|-----------|-------|-----|-------|---------------|--------|
B------|-----------|-------|-----|-------|---------------|--------|
G------|-----------|-------|-----|-------|---------------|--------|
D------|-----------|-------|-----|-------|------------9--|--------|
A-5----|---5--7--9-|-------|-----|-5-----|----/9--12-----|--------|
E------|-----------|-9-----|-----|-------|---------------|-9------|x2


[Chorus]
{Rhythm Guitar}

    G                 A                        F#m             G
Cuz I know that I got way more time than there is left in this day
    G                A                F#m             G
The road will unwind with every stride that I'm gonna take
     G             A                F#m            G
And I'm gonna find that the road it wont always be straight
G                            D
I'm just a stranger to this place

{Lead Guitar}

  G      A         F#m         G      
e------|----------|----------|-------|
B------|----------|----------|-------|
G------|----------|----------|-------|
D------|----------|----------|-------|
A-10---|-12-------|-9-----12-|-10----|
E------|----------|----------|-------| x3

  G                   D            
e------|------------|--------|
B------|------------|--------|
G------|------------|--------|
D------|------------|--------|
A------|-----5--5/7-|-5------| this 5  is the first 5 of the verse line.
E------|------------|--------|  


[Verse]
{Rhythm Guitar}

D 
This day is getting older
                F#m
And I'm getting older too
D
Everything is changing
             F#m
As I'm aging in these shoes
D
I remember saying
                F#m
To my self that I would always smile
D
No matter what my state is
                   F#m
No matter what the day is like

{Lead Guitar}

  D                 F#m           D                       F#m
e------|-----------|-------|-----|-------|---------------|--------|
B------|-----------|-------|-----|-------|---------------|--------|
G------|-----------|-------|-----|-------|---------------|--------|
D------|-----------|-------|-----|-------|------------9--|--------|
A-5----|---5--7--9-|-------|-----|-5-----|----/9--12-----|--------|
E------|-----------|-9-----|-----|-------|---------------|-9------|x2


[Chorus]
{Rhythm Guitar}

    G                 A                        F#m             G
Cuz I know that I got way more time than there is left in this day
    G                A                F#m             G
The road will unwind with every stride that I'm gonna take
     G             A                F#m            G
And I'm gonna find that the road it wont always be straight
G                            D
I'm just a stranger to this place

{Lead Guitar}

  G      A         F#m         G      
e------|----------|----------|-------|
B------|----------|----------|-------|
G------|----------|----------|-------|
D------|----------|----------|-------|
A-10---|-12-------|-9-----12-|-10----|
E------|----------|----------|-------| x3

  G                   D            
e------|------------|--------|
B------|------------|--------|
G------|------------|--------|
D------|------------|--------|
A------|-----5--5/7-|-5------| 
E------|------------|--------|


************************************

| /  Slide up

************************************
Suggest correction
Creating personal tab
Creating personal tab
You can edit any tab online and save it as your Personal.

You can edit, replace or remove any tab part or add personal notes – all changes will be seen only by you.

Personal tabs can be accessed anytime from any device, even offline.
Learn more »
Give kudos to tab author, rate the tab!
1 2 3 4 5
comments
print report bad tab
guest
You may want to rate the tab now too:
select rating
Wanna post a correction for this tab? Suggest correction