Oops, an error
Loading. Please wait.

Wake The Fuck Up chords

by Skegss
1,600 views 81 this week
no commentswrite comment
1 2 3 4 5
x 8
add to favorites
×
Save as Personal and add changes to this tab that will be seen only by you. Learn more ›
×
You can save this tab as Personal to edit and correct it or add notes. All changes will be seen only by you. Learn more »
launch autoscroll
font size
0
reset
transpose
0
reset
display chords
guitar tuner
edit
Autoscroll
slow
fast
+/-
esc
set tempo
stop
Strumming
There is no strumming pattern for this song yet. and get +5 IQ
    D
I'm gonna get some booze cause I wanna get wasted, don't know what to choose, something I haven't tasted
  G                                     D                            
I just can't make up my mind, I'm gonna be standing here all night
    D
I'm gonna get high so I can feel spacey, only gonna run if you're gonna chase me

    G                                       D
You just can't make up your mind, I'm gonna be standing here all night
    G                          A                  F#m      Bm
The party hasn't stopped, everybody's pushin on except for me
     G                    A                    F#m                  Bm
Yeah I'm kinda tired everybody's pretty wild I think that I need to sleep
G                      A                          F#m                Bm
I wish I was ragin but I feel like I'm agein, can hardly stand on my feet
G         A
             I should just wake the fuck up

   D
e|-10-10-9-9-7-7-------7-7-------7----|-10-10-9-9-7-7-------7-7-------7----|
B|---------------10-10-----10-10---10-|---------------10-10-----10-10---10-|
G|------------------------------------|------------------------------------|
D|------------------------------------|------------------------------------|
A|------------------------------------|------------------------------------|
E|------------------------------------|------------------------------------|
   G                                    D
e|-----10-10-10--------10-10-10-10----|-10-10-9-9-7-7-------7-7-------7----|
B|-8-8-----------8-8-8----------------|---------------10-10-----10-10---10-|
G|------------------------------------|------------------------------------|
D|------------------------------------|------------------------------------|
A|------------------------------------|------------------------------------|
E|------------------------------------|------------------------------------|

    D
I'm gonna get loose cause there's no point facin, drinkin straight goon, I got nothin to chase it
  G                                     D
I just can't make up my mind, I'm gonna be standing here all night 
  D 
I wanna find truth cause I'm over waitin, what ya gonna do, stop hesitatin 

    G                                       D
You just can't make up your mind, I'm gonna be standing here all night
    G                          A                  F#m      Bm
The party hasn't stopped, everybody's pushin on except for me
     G                    A                    F#m                  Bm
Yeah I'm kinda tired everybody's pretty wild I think that I need to sleep
G                      A                          F#m                Bm
I wish I was ragin but I feel like I'm agein, can hardly stand on my feet
G         A
             I should just wake the fuck up

   D
e|-10-10-9-9-7-7-------7-7-------7----|-10-10-9-9-7-7-------7-7-------7----|
B|---------------10-10-----10-10---10-|---------------10-10-----10-10---10-|
G|------------------------------------|------------------------------------|
D|------------------------------------|------------------------------------|
A|------------------------------------|------------------------------------|
E|------------------------------------|------------------------------------|
   G                                    D
e|-----10-10-10--------10-10-10-10----|-10-10-9-9-7-7-------7-7-------7----|
B|-8-8-----------8-8-8----------------|---------------10-10-----10-10---10-|
G|------------------------------------|------------------------------------|
D|------------------------------------|------------------------------------|
A|------------------------------------|------------------------------------|
E|------------------------------------|------------------------------------|
   A                  G                 A                  G  A   D
e|------------------------------------|---------------------------10-------|
B|-10-10-10-12-10-10--8-8-8-10-8-8----|-10-10-10-12-10-10--8--10-----------|
G|------------------------------------|------------------------------------|
D|------------------------------------|------------------------------------|
A|------------------------------------|------------------------------------|
E|------------------------------------|------------------------------------|
Suggest correction
Creating personal tab
Creating personal tab
You can edit any tab online and save it as your Personal.

You can edit, replace or remove any tab part or add personal notes – all changes will be seen only by you.

Personal tabs can be accessed anytime from any device, even offline.
Learn more »
comments
print report bad tab
guest
You may want to rate the tab now too:
select rating
Wanna post a correction for this tab? Suggest correction