Oops, an error
Loading. Please wait.

Repulsive Salvation tab

version 2
version 2

Whole song

2,105 views 1 this week
3 commentsread comments
1 2 3 4 5
x 6
add to favorites
×
Save as Personal and add changes to this tab that will be seen only by you. Learn more ›
×
You can save this tab as Personal to edit and correct it or add notes. All changes will be seen only by you. Learn more »
launch autoscroll
font size
0
reset
how to read this tab
guitar tuner
edit
Autoscroll
slow
fast
+/-
esc
set tempo
stop
Author
-----------------------------------------------------------------
"Repulsive Salvation" - Skeletonwitch
-----------------------------------------------------------------
Tabbed by: ASTRX
Email:

Tuning: Standard

Since I really like this song and Skeletonwitch tabs are rare, I decided to 
contribute.

Also, since Skeletonwitch is one of my favorite bands, I am thinking of adding more tabs. 
Message me if you are interested in more tabs or if you have any requests. 

** 6/10/13 update** 
Major makeover of the tab. I split it up into both a rhythm and lead 
section, and I rewrote most of the tab so that it plays as each 
corresponding section should (i.e. lead strictly plays lead while rhythm 
strictly plays rhythm).

*******************************RHYTHM****************************************


Riff 1

**T= Tremolo picking**

e|----|----|----|----|----|----|----|----|
B|----|----|----|----|----|----|----|----|
G|----|----|----|----|----|----|----|----|
D|----|----|----|----|----|----|----|----|
A|-T2-|-T0-|-T2-|-T0-|-T2-|-T0-|----|-T0-|
E|----|----|----|----|----|----|-T2-|----|
    

Riff 2
e|---------------------------------------------------------------|
B|---------------------------------------------------------------|
G|---------------------------------------------------------------|
D|---------------------------------------------------------------|
A|---------------------------------4-4-4-4-5-5-5-5-5-5-5-5-------|
E|-2-2-2-2-2-2-2-2-2-2-2-2-0-0-2-2-------------------------------|


e|---------------------------------------------------------------|
B|---------------------------------------------------------------|
G|---------------------------------------------------------------|
D|---------------------------------------------------------------|
A|---------------------------------3-3-3-3-2-2-2-2-2-2-2-2-------|
E|-3-3-3-3-3-3-3-3-3-3-3-3-3-3-3-3-------------------------------|

e|---------------------------------------------------------------|
B|---------------------------------------------------------------|
G|---------------------------------------------------------------|
D|---------------------------------------------------------------|
A|---------------------------------4-4-4-4-5-5-5-5-5-5-5-5-------|
E|-2-2-2-2-2-2-2-2-2-2-2-2-0-0-2-2-------------------------------|


e|---------------------------------------------------------------|
B|---------------------------------------------------------------|
G|---------------------------------------------------------------|
D|---------------------------------------------------------------|
A|---------------------------------3-3-3-3-2-2-2-2-2-2-2-2-------|
E|-3-3-3-3-3-3-3-3-3-3-3-3-3-3-3-3-------------------------------|



Riff 3

e|----|----|-----|----|
B|----|----|-----|----|
G|----|----|-----|----|
D|----|----|-----|----|
A|-T2-|-T3-|--T0-|-T3-|
E|----|----|-----|----|
   .     .    .    x2

Riff 4
e|---------------------------------------------------------------|
B|---------------------------------------------------------------|
G|---------------------------------------------------------------|
D|-4/5-4/5--4----------------------------------------------------|
A|-2/3-2/3--2----------------------------------------------------|
E|---------------------------------------------------------------| X2

Riff 5
e|---------------------------------------------------------|
B|---------------------------------------------------------|
G|---------------------------------------------------------|
D|-------------------------------2---------------------2---|
A|-2--2-2-2-2--3---5---6-2--2-2----5-4-2--2-2-2--2-4-5-----|
E|-0--0-0-0-0--1-0-3-0-4-0--0-0-----------0-0-0------------|
      . . . .    .   .      . .  . . . .    . .  . . . .

e|---------------------------------------------------------|
B|---------------------------------------------------------|
G|---------------------------------------------------------|
D|-------------------------------2---------------------2---|
A|-2--2-2-2-2--3---5---6-2--2-2----5-4-2--2-2-2--2-4-5-----|
E|-0--0-0-0-0--1-0-3-0-4-0--0-0-----------0-0-0------------|
      . . . .    .   .      . .  . . . .    . .  . . . .

e|---------------------------------------------------------|
B|---------------------------------------------------------|
G|---------------------------------------------------------|
D|-------------------------------2---------------------2---|
A|-2--2-2-2-2--6---3---5-2--2-2----5-4-2--2-2-2--2-4-5-----|
E|-0--0-0-0-0--4-0-1-0-3-0--0-0-----------0-0-0------------|
      . . . .    .   .      . .  . . . .    . .  . . . .

e|---------------------------------------|
B|---------------------------------------|
G|---------------------------------------|
D|---------------------------------------|
A|-2--2-2-2-2--3---5---6-3---5---6---3/5-|
E|-0--0-0-0-0--1-0-3-0-4-1-0-3-0-4-0-1/3-| 
      . . . .    .   .     .   .   .

Repeat riff 5 twice

Riff 6
e|----------------------------------------------------------------|
B|----------------------------------------------------------------|
G|----------------------------------------------------------------|
D|-----4---2---4---4---2---4--------------------------------------|
A|-2---2---3---5---2---3---5--------------------------------------|
E|-0--------------------------------------------------------------|

Riff 7
e|---------------------------------------------------------------|
B|---------------------------------------------------------------|
G|---------------------------------------------------------------|
D|---------------------------------------------------------------|
A|---------------------------------4-4-4-4-5-5-5-5-5-5-5-5-------|
E|-2-2-2-2-2-2-2-2-2-2-2-2-0-0-2-2-------------------------------|

e|---------------------------------------------------------------|
B|---------------------------------------------------------------|
G|---------------------------------------------------------------|
D|---------------------------------------------------------------|
A|---------------------------------3-3-3-3-2-2-2-2-2-2-2-2-------|
E|-3-3-3-3-3-3-3-3-3-3-3-3-3-3-3-3-------------------------------|

e|---------------------------------------------------------------|
B|---------------------------------------------------------------|
G|---------------------------------------------------------------|
D|---------------------------------------------------------------|
A|---------------------------------4-4-4-4-5-5-5-5-5-5-5-5-------|
E|-2-2-2-2-2-2-2-2-2-2-2-2-0-0-2-2-------------------------------|

e|----------------------------------------------------|
B|----------------------------------------------------|
G|----------------------------------------------------|
D|----------------------------------3---------3-------|
A|----------------------------------1---3-2---1---3-2-|
E|-3-3-3-3-3-3-3-3-3-3-3-3-3-3-3-3------1-0-------1-0-|
                                        . .       . .
Repeat riff 7 twice

Riff 8
e|---------------------------------|----Fourth time--------------------|
B|---------------------------------|-----------------------------------|
G|---------------------------------|-----------------------------------|
D|---------------------------------|-----------------------------------|
A|-3-----5/6---3---5---3---6---3/5-|-3-----5-2-2-2-2-2-2-2-2-2-2-2-2-2-|
E|-1-0-0-3/4-0-1-0-3-0-1-0-4-0-1/3-|-1-0-0-3-0-0-0-0-0-0-0-0-0-0-0-0-0-|
     . .     .   .   .   .   .    3x   . .     . . . . . . . . . . . .
(Come in third time lead plays this)

Repeat riff 8 twice

Riff 9
Same as riff 8 but with more open palm muting between each non-open note.

e|-----------------------------------------------|
B|-----------------------------------------------|
G|-----------------------------------------------|
D|-----------------------------------------------|
A|-3---------5/6-----3-----5-----3-----6-----3/5-|
E|-1-0-0-0-0-3/4-0-0-1-0-0-3-0-0-1-0-0-4-0-0-1/3-|
     . . . .     . .   . .   . .   . .   . .

Riff 10 

e|----------------------------------------------------------------|
B|----------------------------------------------------------------|
G|----------------------------------------------------------------|
D|-----4---2---4---4---2---4---4----------------------------------|
A|-2---2---3---5---2---3---5---2----------------------------------|
E|-0--------------------------------------------------------------|


Riff 11

e|-----------------------------------------------------------------|
B|-----------------------------------------------------------------|
G|-----------------------------------------------------------------|
D|-----------------------------------------------------------------|
A|-----------------------------------------------------------------|
E|-2-2-2-2-2-2-2-2-2-2-2-2-2-2-2-2-2-2-2-2-2-2-2-2-2-2-2-2-2-2-2-2-|
   . . . . . . . . . . . . . . . . . . . . . . . . . . . . . . . . 


Repeat riff 11 until fade out


********************************LEAD**************************

Riff 1


e|----------------------------------------------------------------------------|
B|----------------------------------------------------------------------------|
G|----------------------------------------------------------------------------|
D|-5-5-5-5-2-2-2-2-4-4-4-4-0-0-0-0-2-2-2-2-4-4-4-4-5-5-5-5-4-4-4-4------------|
A|----------------------------------------------------------------4-4-4-4-4-4-|
E|----------------------------------------------------------------------------| -|
                                                                                 |
----------------------------------------|                                        |
----------------------------------------|                                        |
----------------------------------------|                                        |
-4-4-2-2--------------------------------|                                        |
--------4-4-4-4-4-4-4-4-4-4-4-4-4-4-4-4-|                                        |
----------------------------------------|  ---------------------------------------X4

Riff 2

e|---------------------------------------------------------------|
B|---------------------------------------------------------------|
G|---------------------------------------------------------------|
D|---------------------------------4-4-4-4-5-5-5-5-5-5-5-5-------|
A|-4-4-4-4-4-4-4-4-4-4-4-4-2-2-4-4-------------------------------|
E|---------------------------------------------------------------|


e|---------------------------------------------------------------|
B|---------------------------------------------------------------|
G|---------------------------------------------------------------|
D|---------------------------------2-2-2-2-0-0-0-0-0-0-0-0-------|
A|-5-5-5-5-5-5-5-5-5-5-5-5-5-5-5-5-------------------------------|
E|---------------------------------------------------------------|

e|---------------------------------------------------------------|
B|---------------------------------------------------------------|
G|---------------------------------------------------------------|
D|---------------------------------4-4-4-4-5-5-5-5-5-5-5-5-------|
A|-4-4-4-4-4-4-4-4-4-4-4-4-2-2-4-4-------------------------------|
E|---------------------------------------------------------------|

e|---------------------------------------------------------------|
B|---------------------------------------------------------------|
G|---------------------------------------------------------------|
D|---------------------------------2-2-2-2-0-0-0-0-0-0-0-0-------|
A|-5-5-5-5-5-5-5-5-5-5-5-5-5-5-5-5-------------------------------|
E|---------------------------------------------------------------|

Riff 3


e|-----------------------------------------------------------------|
B|-----------------------------------------------------------------|
G|-----------------------------------------------------------------|
D|-5-5-5-5-2-2-2-2-4-4-4-4-0-0-0-0-2-2-2-2-4-4-4-4-5-5-5-5-4-4-4-4-|
A|-----------------------------------------------------------------|
E|-----------------------------------------------------------------|
   . . . . . . . . . . . . . . . . . . . . . . . . . . . . . . . .

e|-----------------------------------------------------------------|
B|-----------------------------------------------------------------|
G|-----------------------------------------------------------------|
D|-5-5-5-5-2-2-2-2-4-4-4-4-0-0-0-0-2-2-2-2-4-4-4-4-5-5-5-5-4-4-4-4-|
A|-----------------------------------------------------------------|
E|-----------------------------------------------------------------|
   . . . . . . . . . . . . . . . . . . . . . . . . . . . . . . . .

e|-----------------------------------------------------------------|
B|-----------------------------------------------------------------|
G|-----------------------------------------------------------------|
D|-7-7-7-7-4-4-4-4-5-5-5-5-2-2-2-2-4-4-4-4-5-5-5-5-7-7-7-7-5-5-5-5-|
A|-----------------------------------------------------------------|
E|-----------------------------------------------------------------|
   . . . . . . . . . . . . . . . . . . . . . . . . . . . . . . . . 

e|-----------------------------------------------------------------|
B|-----------------------------------------------------------------|
G|-----------------------------------------------------------------|
D|-9-9-9-9-5-5-5-5-7-7-7-7-4-4-4-4-2-2-2-2-4-4-4-4-5-5-5-5-4-4-4-4-|
A|-----------------------------------------------------------------|
E|-----------------------------------------------------------------|
   . . . . . . . . . . . . . . . . . . . . . . . . . . . . . . . . 

Repeat riff 3 two times.

Riff 4

e|---------------------------------------------------------------|
B|---------------------------------------------------------------|
G|---------------------------------------------------------------|
D|-4/5-4/5--4-4-4-4--4-4--4-4-4-4--4-4--4-4-4-4------------------|
A|-2/3-2/3--2-2-2-2--2-2--2-2-2-2--2-2--2-2-2-2------------------|
E|---------------------------------------------------------------| X2
            . . . .       . . . .       . . . .
Riff 5
e|---------------------------------------------------------|
B|---------------------------------------------------------|
G|---------------------------------------------------------|
D|-------------------------------2---------------------2---|
A|-2--2-2-2-2--3---5---6-2--2-2----5-4-2--2-2-2--2-4-5-----|
E|-0--0-0-0-0--1-0-3-0-4-0--0-0-----------0-0-0------------|
      . . . .    .   .      . .  . . . .    . .  . . . .

e|---------------------------------------------------------|
B|---------------------------------------------------------|
G|---------------------------------------------------------|
D|-------------------------------2---------------------2---|
A|-2--2-2-2-2--3---5---6-2--2-2----5-4-2--2-2-2--2-4-5-----|
E|-0--0-0-0-0--1-0-3-0-4-0--0-0-----------0-0-0------------|
      . . . .    .   .      . .  . . . .    . .  . . . .

e|---------------------------------------------------------|
B|---------------------------------------------------------|
G|---------------------------------------------------------|
D|-------------------------------2---------------------2---|
A|-2--2-2-2-2--6---3---5-2--2-2----5-4-2--2-2-2--2-4-5-----|
E|-0--0-0-0-0--4-0-1-0-3-0--0-0-----------0-0-0------------|
      . . . .    .   .      . .  . . . .    . .  . . . .

e|---------------------------------------|
B|---------------------------------------|
G|---------------------------------------|
D|---------------------------------------|
A|-2--2-2-2-2--3---5---6-3---5---6---3/5-|
E|-0--0-0-0-0--1-0-3-0-4-1-0-3-0-4-0-1/3-| 
      . . . .    .   .     .   .   .

Riff 6/ Solo 1 (COMING SOON!)

Riff 7

e|---------------------------------------------------------------|
B|---------------------------------------------------------------|
G|---------------------------------------------------------------|
D|--------------------------------4-4-4-4-5-5-5-5-5-5-5-5--------|
A|-4-4-4-4-4-4-4-4-4-4-4-4-2-2-4-4-------------------------------|
E|---------------------------------------------------------------|

e|---------------------------------------------------------------|
B|---------------------------------------------------------------|
G|---------------------------------------------------------------|
D|---------------------------------2-2-2-2-0-0-0-0-0-0-0-0-------|
A|-5-5-5-5-5-5-5-5-5-5-5-5-5-5-5-5-------------------------------|
E|---------------------------------------------------------------|

e|---------------------------------------------------------------|
B|---------------------------------------------------------------|
G|---------------------------------------------------------------|
D|--------------------------------4-4-4-4-5-5-5-5-5-5-5-5--------|
A|-4-4-4-4-4-4-4-4-4-4-4-4-2-2-4-4-------------------------------|
E|---------------------------------------------------------------|

e|---------------------------------------------------------------|
B|---------------------------------------------------------------|
G|---------------------------------------------------------------|
D|----------------------------------3----------------------------|
A|-5-5-5-5-5-5-5-5-5-5-5-5-5-5-5-5--1--3-2-----------------------|
E|-------------------------------------1-0-----------------------| 

Repeat riff 7 twice

Riff 8
e|---------------------------------|----Fourth time--------------------|
B|---------------------------------|-----------------------------------|
G|---------------------------------|-----------------------------------|
D|---------------------------------|-----------------------------------|
A|-3-----5/6---3---5---3---6---3/5-|-3-----5-2-2-2-2-2-2-2-2-2-2-2-2-2-|
E|-1-0-0-3/4-0-1-0-3-0-1-0-4-0-1/3-|-1-0-0-3-0-0-0-0-0-0-0-0-0-0-0-0-0-|
     . .     .   .   .   .   .    3x   . .     . . . . . . . . . . . .

Repeat riff 8 twice

Riff 9
Same as riff 8 but with more open palm muting between each non-open note.

e|-----------------------------------------------|
B|-----------------------------------------------|
G|-----------------------------------------------|
D|-----------------------------------------------|
A|-3---------5/6-----3-----5-----3-----6-----3/5-|
E|-1-0-0-0-0-3/4-0-0-1-0-0-3-0-0-1-0-0-4-0-0-1/3-|
     . . . .     . .   . .   . .   . .   . .

Riff 10/ Solo 2 (Coming soon!)

Riff 11

e|-----------------------------------------------------------------|
B|-----------------------------------------------------------------|
G|-----------------------------------------------------------------|
D|-----------------------------------------------------------------|
A|-5-5-5-5-2-2-2-2-4-4-4-4-0-0-0-0-2-2-2-2-4-4-4-4-5-5-5-5-4-4-4-4-|
E|-----------------------------------------------------------------|
   . . . . . . . . . . . . . . . . . . . . . . . . . . . . . . . . 

Repeat riff 11 until fade-out.
                                       . .
There you go! Repulsive Salvation! Please remember to comment and rate! Thank you! Gracias! Merci! 

Key:

| /  slide up
| \  slide down
| h  hammer-on
| p  pull-off
| ~  vibrato
| +  harmonic
| x  Mute note
| .  Palm mute

            
            
Suggest correction
Creating personal tab
Creating personal tab
You can edit any tab online and save it as your Personal.

You can edit, replace or remove any tab part or add personal notes – all changes will be seen only by you.

Personal tabs can be accessed anytime from any device, even offline.
Learn more »
comments
print report bad tab
3 comments total.
+1 reply
ASTRX 30 Jun 04, 2013 05:03 PM

I noticed some mistakes and have submitted corrections. The tab should be updated in a day or two.

0 reply
ASTRX 30 Jun 10, 2013 05:45 PM

Major update coming soon! I divided the rhythm and lead sections, and rewrote much of the tab, making it much more accurate. I will most likely add the solos in the next update.

0 reply
ImortallyInsane 10 Aug 17, 2013 12:46 PM

It's about time we get a decent Skeletonwitch tab, good job sir. If you could do This Horrifying Force that would be amazing.

guest
You may want to rate the tab now too:
select rating
Wanna post a correction for this tab? Suggest correction