Oops, an error
Loading. Please wait.

Tragedy Of Days Tab

1,890 views 1 this week
2 commentsread comments
1 2 3 4 5
2 more votes to show rating
add to favorites
launch autoscroll
font size
0
reset
how to read this tab
guitar tuner
Autoscroll
slow
fast
+/-
esc
set tempo
stop
Help us to improve Ultimate-Guitar.com Take our survey!
×
Author
Difficulty
novice
Tragety Of Days By: Skeletonwitch

Tabbed By 666kataklysm.

E tuning.

I will tab the ending solo as soon as i buy a new e string.


_= palm mute
~= vibrato or slow down stroke or both
h= hammer on
p= pull off
"= tremblo pick




Acoustic intro                                                        X2

|---------------------------------------------------------------------------|
|---------------------------------------------------------------------------|
|-----------7---------------------------------------------------------------|
|--9~--9-10---10-9-7---9~-------------------10~----------------7-4-5--8-5-4-|
|--7~------------------9~-9-10-9-7-6h7p7----10~--7-8-7----8-7--5------6-----|
|--0~------------------7~-------------------8~---------10-------------------|


Riff 1                                                                   X2

|---------------------------------------------------------------------------|
|---------------------------------------------------------------------------|
|-----------7"--------------------------------------------------------------|
|----9"-10"---10"-9"-7"----------------------------------------4"-5'--5"-4"-|
|-7"---------------------9"-10"-9"-7"-6"---7"-8"-7"---8"-7"-5"------6"------|
|----------------------7"----------------8"--------10"----------------------|





Riff 2   (Play each part the # of times said)

|-------------------------------------------------------------------|
|-------------------------------------------------------------------|
|-------------------------------------------------------------------|
|------99-9-X4-------------X4------------X4-------44-4-X2------88-8-|
|------77-7-----------99-9----------77-7-----5555-55-5----6666-66-6-|
|-0000-----------7777-77-7-----8888-88-8----------------------------|
  ____           ____          ____          ____         ____


solo 1

|----------------------------------------------------------------------------------|
|-12~---10-8~--8h10p8-7~---5-7-8-7-10p8p7-10p8p7-10p8p7-5~--5-7h8-8-7-5h8p5-4~-----|
|-----------------------------------------------------------------------------9/4~-|
|----------------------------------------------------------------------------------|
|----------------------------------------------------------------------------------|
|----------------------------------------------------------------------------------|

Riff 3A
|-----------------------------------------------------------------------|
|-----------------------------------------------------------------------|
|-----------------------------------------------------------------------|
|-----------------------------4h7p4h7---4h7p4h7---7h10p7h10---7h10p7h10-|
|----7h10p7h10---7h10p7h10-555-------555-------000---------000----------|
|-000---------000-------------------------------------------------------|
  ___         ___          ___       ___       ___         ___


Riff 3B
|-------------------|
|-------------------|
|-------------------|
|-----7--7-----4-4--|
|-333--3----555-5---|
|-------------------|
  ___       ___     


Play Riff 3A&B 2 times.

Couldn't figure out this next riff?... Riff 4...


Riff 5
|-----------------------|
|-----------------------|
|-----------------------|
|-----10----------------|
|-----8-------8h10p8h10-|
|-000-0-00000-----------|
  ___   _____     


Riff 6
|-------------------------------|
|-------------------------------|
|-------------------------------|
|-------------------------------|
|----7-9-10-9--9-10-12-11-5-7-7-|
|-000-------7--7-9--10-9--3-5-5-|
  ___
Suggest correction
Give kudos to tab author, rate the tab!
1 2 3 4 5
comments
print report bad tab
2 comments total.
0 reply
pablo02324 10 Jul 12, 2010 04:29 PM

Awesome job tabbing the intro, it was spot on. It would be sick if someone put up the rest of the song....

0 reply
Thrash.aholic 60 Oct 24, 2010 08:07 PM

yeah please remember to post when yer done.

guest
You may want to rate the tab now too:
select rating
Wanna post a correction for this tab? Suggest correction