Oops, an error
Loading. Please wait.

Within My Blood Tab

version 1
version 1

Whole song

Interactive

12,478 views 12 this week
5 commentsread comments
1 2 3 4 5
excellent!
x 10
add to favorites
launch autoscroll
font size
0
reset
how to read this tab
guitar tuner
Autoscroll
slow
fast
+/-
esc
set tempo
stop
Help us to improve Ultimate-Guitar.com Take our survey!
×
Author
-------------------------------------------------------------------------------
                             WITHIN MY BLOOD - Skeletonwitch
-------------------------------------------------------------------------------
www.skeletonwitch.com
Tabbed by: frozen_soul
Email: surfingdead138@aol.com

I'm fairly certain this is mostly accurate.

Enjoy.

Tuning: EADGBE


e|------------------------------------------------------------------|
B|------------------------------------------------------------------|
G|------------------------------------------7-5-4-5-4h5p4p0---------|
D|-2-5-4h5p4p0-----5-----5------2-5-4h5p4p0-------------------------|
A|-------------2-2---3-3--------------------------------------------|
E|------------------------------------------------------------------|x4


e|-------------------------------------------------------------|
B|-------------------------------------------------------------|
G|-------------------------------------------------------------|
D|-2----5---5------9--77--9--55--------------------------------|
A|-2----3---5------7--55--7--33--------------------------------|
E|-0----0---0----00-00--00-00----------------------------------|x2


e|-------------------------------------------------------------------------|
B|-------------------------------------------------------------------------|
G|-------------------------------------------------------------------------|
D|-9--7--9---9-7-5--2-2-2-2-3-3-2-2--4-4-4-4-5-5-4-4-----5---4-4---5---4---|
A|-7--5--7----------3-3-3-3-3-3-3-3--5-5-5-5-5-5-5-5-----7---5-5---7---5---|
E|-0--0--0--------------------------------------------00---00----00--00--0-|x4


e|-------------------------------------------------------------------|
B|-------------------------------------------------------------------|
G|----0h4------------------------0h4------------4-2------------------|
D|--------2h5---0h2-5p4---0h2--------2h5---0h2--5-4------------------|
A|----------------------------------------------5-4------------------|
E|-00---------0---------0-----00---------0---------------------------|x2


e|--------------------------------------------------------------|
B|--------------------------------------------------------------|
G|----0h4-------------------------------------------------------|
D|--------2h5---0h2-5p4---0h2-----------------------------------|
A|--------------------------------------------------------------|
E|-00---------0---------0---------------------------------------|x8


e|---------------------------------------------------------------|
B|---------------------------------------------------------------|
G|----0h4--------------------------------------------------------|
D|----------2h5---2----------------------------------------------|
A|----------------2----10-9-7-9-10-9-----------------------------|
E|-00-----0-------0-----8-7-5-7--8-7-----------------------------|x1


e|--------------------------------------------------------------------|
B|--------------------------------------------------------------------|
G|------------------------------------------7-5-4-5-4h5p4p0-----------|
D|-2-5-4h5p4p0-----5-----5------2-5-4h5p4p0---------------------------|
A|-------------2-2---3-3----------------------------------------------|
E|--------------------------------------------------------------------|x5


e|---------------------------------------------------------------------------|
B|---------------------------------------------------------------------------|
G|---------------------------------------------------------------------------|
D|-9----9----9---9----9----9-----5----5----5---7----5----5----4----4----4----|
A|-7----7----7---7----7----7-----3----3----3---3----3----3----5----5----5----|
E|---00---00---0---00---00---0-----00---00---0---00---00---0----00---00---0--|


e|---------------------------------------------------------------------------|
B|--------------------------------------------8----5-------------------------|
G|--------------------------------------------x----x-------------------------|
D|-5----4----4---9----9----7----9----9----7---5----2---7----7----7---7----7--|
A|-5----5----5---7----7----5----7----7----5---7----3---5----5----5---5----5--|
E|---00---00---0---00---00--------00---00-----0----0-----00---00---0---00----|


e|---------------------------------------------------------------------------|
B|---------------------------------------------------------------------------|
G|---------------------------------------------------------------------------|
D|----7---9----9----7---9----9----7------------------------------------------|
A|----5---7----7----7---7----7----7------------------------------------------|
E|-00---0---00---00-------00---00--------------------------------------------|

   Solo:
e|---------------------------------------------------------------------------|
B|--------------------------------------------------------12h15p12h15p12h15h-|
G|-------------12----------------12-------b14-b14-b14-b14--------------------|
D|-14-12h14p12----14-12h14p12h14----14-12------------------------------------|
A|---------------------------------------------------------------------------|
E|---------------------------------------------------------------------------|


e|-------12h15p12h15p12h15p12h15----------------------------------17-15------|
B|-12p15-------------------------15-12----12-15-12-15h17p15----15------------|
G|-------------------------------------14-------------------16---------------|
D|---------------------------------------------------------------------------|
A|---------------------------------------------------------------------------|
E|---------------------------------------------------------------------------|


e|-14h15p14h15p14-\12-14-12-15p14p12-----------------------------------------|
B|-----------------------------------15p13p12--------------------------------|
G|--------------------------------------------b14-b14-14-12----12----12-14---|
D|----------------------------------------------------------14----14---------|
A|---------------------------------------------------------------------------|
E|---------------------------------------------------------------------------|


e|-----------19p15h19-15-19----19p15-19-15----15h19p15----15h19p15----15h20p-|
B|--------------------------17-------------17----------17----------17--------|
G|-b14---~12-----------------------------------------------------------------|
D|---------------------------------------------------------------------------|
A|---------------------------------------------------------------------------|
E|---------------------------------------------------------------------------|


e|-15----15h20p15-------------------------------------------------------------|
B|----17----------------------------------------------------------------------|
G|--------------------17-20p17---17-20p17----17-20p17----17-20p17----17-20p17-|
D|-----------------17----------17---------17----------17----------17----------|
A|----------------------------------------------------------------------------|
E|----------------------------------------------------------------------------|


e|-------------------------------------17p14-17p14----14-17p14-17p14----14-17-|p
B|-------------------------------------------------15----------------15-------|
G|----17-20p17----17-20p17----17-20p17----------------------------------------|
D|-17----------17----------17-------------------------------------------------|
A|----------------------------------------------------------------------------|
E|----------------------------------------------------------------------------|


e|-14-17p14----14-17p14-17p14----14-15p0-14h15-0-12h14h15-0-12h14h15-0-12h14h-|
B|----------15----------------15----------------------------------------------|
G|----------------------------------------------------------------------------|
D|----------------------------------------------------------------------------|
A|----------------------------------------------------------------------------|
E|----------------------------------------------------------------------------|


e|-15-19p15h19p15p0-15-19p15h19p15p0-15-19p15h19p15p0-15-19p15h19p15p0-15----|
B|---------------------------------------------------------------------------|
G|---------------------------------------------------------------------------|
D|------------------------------------------------------------------------14-|
A|---------------------------------------------------------------------------|
E|---------------------------------------------------------------------------|


e|----------------------------------------------------------------|
B|----------------------------------------------------------------|
G|-------14-------------------------14-------------------------14-|
D|-16-17----16h17p16p14-16-17-16-17----16-17p16-14-16-17-16-17----|
A|----------------------------------------------------------------|
E|----------------------------------------------------------------|


e|-----------------------------------------------------------------------12--|
B|--------------------------------------------------------------------12-----|
G|-------------------------14-----------------16----------------9--11--------|
D|-16-17p16-14-16-17-16-17----16-17p16-14----------~9---9---12---------------|
A|---------------------------------------------------------------------------|
E|---------------------------------------------------------------------------|


e|-14-15-b15-15-14-15-14-12--------15p12----12-15p12-15p12----12-15p12-15p12-|
B|--------------------------b15----------15----------------15----------------|
G|---------------------------------------------------------------------------|
D|---------------------------------------------------------------------------|
A|---------------------------------------------------------------------------|
E|---------------------------------------------------------------------------|


e|----12-15p12-15p12----12-15p12-15p12----12-12h15p12-17p15----15-17p15-17p15-|
B|-15----------------15----------------15-------------------17----------------|
G|----------------------------------------------------------------------------|
D|----------------------------------------------------------------------------|
A|----------------------------------------------------------------------------|
E|----------------------------------------------------------------------------|


e|----15-17p15-17p15----15-17p15-17p15----15-17-15-19p17----17-19p17-19p17-|
B|-17----------------17----------------17----------------19----------------|
G|-------------------------------------------------------------------------|
D|-------------------------------------------------------------------------|
A|-------------------------------------------------------------------------|
E|-------------------------------------------------------------------------|


e|----17-19p17-19p17----17-19p17-19p17----17h19p17--------------------|
B|-19----------------19----------------19-----------------------------|
G|--------------------------------------------------------------------|
D|--------------------------------------------------------------------|
A|-----------------------------------------------------------12-14-15-|
E|--------------------------------------------------12-14-15----------|


e|-------------------------------------------------|
B|----------------12-13-15-b15---------------------|
G|----------12-14----------------------------------|
D|-12-14-16-----------------------9----7----5----4-|
A|--------------------------------7----5----3----2-|
E|-------------------------------------------------|


e|------------------|
B|-8-7-8-10-8p7h8---|
G|----------------9-|
D|------------------|
A|------------------|
E|------------------| x35


e|---------------------------------------------------------------|
B|---------------------------------------------------------------|
G|---------------------------------------------------------------|
D|-99999999----7----5----4----2-2-2-2-2-2-2-2------2-----9-9-9-9-|
A|-77777777----5----3----2----2-2-2-2-2-2-2-2------2-----7-7-7-7-|
E|----------------------------0-1-0-1-0-1-0-1------0-------------|


| b  bend
| /  slide up
| \  slide down
| h  hammer-on
| p  pull-off
| ~  vibrato
| +  harmonic
| x  Mute note

=============================================================================
Suggest correction
comments
print report bad tab
5 comments total. Showing first comments.
+1 reply
@,..,@ 72 wrote on February 7 2009, 11:14 am

great tab 5 starz. few parts a little off but theres no wrong notes. ive been waiting forever for some1 to tab this. thnx

+1 reply
redmage13 10 wrote on February 26 2009, 09:25 pm

This is probably the most tab ever. 5 stars.

Now we just need some Skeletonwitch guitar pro tabs, hint hint.

0 reply
ShredHead396 200 wrote on July 12 2009, 08:01 am

This is awesome, but what is with people and guitar pro?
This tab was complete, which means it got solo and the rest and it is spot on, something that is rare with a lot of thrash around here, keep doing more skeleton witch man, and text tab is a dream for me, really when its got the solos to, cheers man :)

guest
You may want to rate the tab now too:
select rating
Please do not post tabs as comments. Select "correction" instead!