Oops, an error
Loading. Please wait.

Shutdown bass

by Skepta
1,609 views 18 this week
2 commentsread comments
1 2 3 4 5
x 5
add to favorites
×
Save as Personal and add changes to this tab that will be seen only by you. Learn more ›
×
You can save this tab as Personal to edit and correct it or add notes. All changes will be seen only by you. Learn more »
launch autoscroll
font size
0
reset
guitar tuner
edit
Autoscroll
slow
fast
+/-
esc
set tempo
stop
Author
Difficulty
Skepta - Shutdown
Tuning: EADG


Intro

G|------------------------------------
D|------------------------------------
A|-----5----------5------------5------
E|--3---43-223--3---43-223--3---43-223

Verse
G|------------------------------------
D|------------------------------------
A|-----5-----------5-----------5------
E|--3---43-223--3---43-223--3---43-223

Chorus
G|------------------------------------
D|------------------------------------
A|-----5-----------5-----------5------
E|--3---43-223--3---43-223--3---43-223

This can also be played on guitar with the same riff. 

It is just this for the whole song :)
Just listen to the song for the timing


            
            
Suggest correction
Creating personal tab
Creating personal tab
You can edit any tab online and save it as your Personal.

You can edit, replace or remove any tab part or add personal notes – all changes will be seen only by you.

Personal tabs can be accessed anytime from any device, even offline.
Learn more »
comments
print report bad tab
2 comments total.
0 reply
bassmanjai 10 May 22, 2017 04:11 PM

Tab actually goes

G|------------------------------------
D|------------------------------------
A|-----5-----------5-----------5------
E|--3---63-223--3---63-223--3---63-223

0 reply
gweelopapp 10 Jul 12, 2017 06:31 PM

I got:

G|------------------------------------
D|------------------------------------
A|-----5----------5------------5------
E|--3---43-113--3---43-113--3---43-113

guest
You may want to rate the tab now too:
select rating
Wanna post a correction for this tab? Suggest correction