Oops, an error
Loading. Please wait.

18 And Life Bass Tab

version 1
version 1
33,260 views 24 this week
5 commentsread comments
1 2 3 4 5
x 9
add to favorites
launch autoscroll
font size
0
reset
guitar tuner
Autoscroll
slow
fast
+/-
esc
set tempo
stop
Help us to improve Ultimate-Guitar.com Take our survey!
×
Song: 18 And Life
Album Skid Row
Artist: Skid Row


Intro X1
|---------------------------------------|
|---------------------------------------|
|4----4h6-4----2-4-----2/11-15----11\---|
|------------------------------16-------|

Verse 1 P.1 X3
|--------------------------------|
|--------------------------------|
|4----4h6-4----2-4-6-4----4------|
|---------------------------5-4--|

Verse 1 P.2 X1(I play slap here, I think it sound cool, but its up to you)
|----------------------------------------------------------------|
|----------------------------------------------------------------|
|----------------------------------------------0-0-0-0-2-0-2-3-4-|
|5-5-5-5-5-5-4-2-2-2-2-2-2-0-2-4--4-4-4-4-4-0-4------------------|


Chorus pt.1
|--------------------------------------------------------|
|--------------------------------------------------------|
|4-4-2-0--0-2---------2-3-4--4-4-2-0--0-2--------0-2-3-4-|
|------------0--2-3-4--------------------0-2-3-4---------|
Chorus pt.2
|-------------------------------------------------------------|
|-------------------------------------------------------------|
|4-4-2-0--0-2---------2-3-4--4-4-2-0-----------------2-0-2-3-4|
|------------0--2-3-4----------------0--0-0-0--0-0-4----------|

Verse 2 P.1 X3
|-------------------------------------------|
|4--4-4--4-4--4-4---4--4-4------------------|
|-------------------------------------4-----|
|--------------------------2--------9\--5-4-|

Verse 2 P.2 X1 (Same as before, only if you want to)
|----------------------------------------------------------------|
|----------------------------------------------------------------|
|----------------------------------------------0-0-0-0-2-0-2-3-4-|
|5-5-5-5-5-5-4-2-2-2-2-2-2-0-2-4--4-4-4-4-4-0-4------------------|

Chorus X2
Repeat ending after, then:
Bridge P.1 X1
|---------------6---6---6--------|
|--------------6-6-6-6-6-6-------|
|4-444-444-444-------------8-7-6-|
|--------------------------------|

Bridge P.2 X1
|--------------------------------------------------------|
|--------------------------------------------------------|
|--------------------------------------0-0-0-0-2-0-2-3-4-|
|1--1-1-2-3-4-5--5-5-4-3-2-1--1-1-0-1-2------------------|

Continue Chorus to the End
Suggest correction
comments
print report bad tab
5 comments total. Showing first comments.
0 reply
Helloween4Ever 152 Jul 22, 2008 02:25 PM

going into chorus play A:0-0-0-0-2-0-2-3-4

second time end with A:4--4-2-0-0-2----------2-0-2-3-4
E:------------0-0-0-0-4----------

+1 reply
PUNKfromNORWAY 113 Jan 11, 2009 12:20 PM

Intro X1
|---------------------------------------|
|---------------------------------------|
|4----4h6-4----2-4-----2/12-14-11-16\---|
|---------------------------------------|

and some other parts are a bit off, but good job

-1 reply
DanxD 10 Sep 27, 2013 04:27 PM

|---------------------------------------|
|---------------------------------------|
|4----4h6-4----2-4-----2/11-13-11-15\---|
|---------------------------------------|

guest
You may want to rate the tab now too:
select rating
Wanna post a correction for this tab? Suggest correction