Oops, an error
Loading. Please wait.

18 And Life Tab

version 4
8,486 views 3 this week
no commentswrite comment
1 2 3 4 5
please rate
add to favorites
launch autoscroll
font size
0
reset
how to read this tab
guitar tuner
Tab Pro tools
  • play this tab
  • loop segment
  • change instrument
  • show fretboard
  • metronome
×
Best way to learn
"18 And Life"
Autoscroll
slow
fast
+/-
esc
set tempo
stop
Difficulty
novice
-------------------------------------------------------------------------------
                             18 & Life - Skid Row
-------------------------------------------------------------------------------
Tabbed by: Pianoman
Email: matcat12@gmail.com



Intro
=====

   C#m             B                C#m             B
E |--------------------------------|--------------------------------|
B |----5-----------4---------------|----5-----------4---------------|
G |--------6-----------4-----------|--------6-----------4-----------|
D |------------------------4-------|------------------------4-------|
A |4-----------4---------------4h6-|4-----------4---------------2---|
E |--------------------------------|--------------------------------|



   C#m             B                Asus2           Bsus4
E |--------------------------------|--------0---------------0-------|
B |----5-----------4---------------|--------0---------------0-------|
G |--------6-----------4-----------|--------2---------------4-------|
D |------------------------4-------|----2---------------4-----------|
A |4-----------4---------------4---|0---------------2---------------|
E |--------------------------------|--------------------------------|




Chorus
======

   C#5             A#5              E5              B5
E |--------------------------------|--------0-----------------------|
B |--------------------------------|----0-------0-----------4-------|
G |--------6---------------2-------|--------------------------------|
D |----6-------6-------2-------2---|--------------------4-----------|
A |4---------------0---------------|----------------2-----------3---|
E |--------------------------------|0-------------------------------|

Solo
====

e------------------------------------9------------------------|
B-------------------------------------9h12p9--12b-12br-9------|
G-8h9---8h9----8h9-11~--8h9p8--8h9----------------------9-----|
D----11~----11~--------------9~---11~-------------------------|
A-------------------------------------------------------------|
E-------------------------------------------------------------|


e---------------------------------------------9---------------|
B---------------------------------9h10-12p10-9--12p10p9-------|
G-11b-14-11br-8\9-8~--8-9'--8-9-11----------------------------|
D-----------------9~------------------------------------------|
A-------------------------------------------------------------|
E-------------------------------------------------------------|


e---------------------------------------19p17p16h17p16--------|
B---------------------9h12-14---16b--19-----------------------|
G-11-9p8h9p8~-----9h11----------------------------------------|
D-------------9h11--------------------------------------------|
A-------------------------------------------------------------|


e---16---------------------19b~-------------------------------|
B-19--19p17p16--17p16-----------------------------------------|
G-------------18-----18p16------------------------------------|
D-------------------------------------------------------------|
A-------------------------------------------------------------|
E-------------------------------------------------------------|




End
===

E |----0---------------0-----------|----0-----------------------0---|
B |--------4---------------4-------|--------4---------------4-------|
G |------------4---------------4---|------------4-------4-----------|
D |--------------------------------|--------------------------------|
A |4---------------0---------------|----------------2---------------|
E |--------------------------------|0-------------------------------|
 
E |----0---------------0-----------|0-------0-------------------0---|
B |--------4---------------4-------|0-----------4-----------4-------|
G |------------4---------------4---|1---------------4---------------|
D |--------------------------------|2---------------4---------------|
A |4----------------0--------------|2---------------2---------------|
E |--------------------------------|0-------------------------------|
 
E |4-------------------------------|
B |5-------------------------------|
G |6-------------------------------|
D |6-------------------------------|
A |4-------------------------------|
E |--------------------------------|

comments
We did not receive enough feedback on this tab! Please rate:
print report bad tab
1 2 3 4 5
I want to post or [tab]
guest
You may want to rate the tab now too:
select rating
Please do not post tabs as comments. Select "correction" instead!