Oops, an error
Loading. Please wait.

Beat Yourself Blind Bass Tab

880 views 6 this week
no commentswrite comment
1 2 3 4 5
please rate
add to favorites
launch autoscroll
font size
0
reset
guitar tuner
Autoscroll
slow
fast
+/-
esc
set tempo
stop
Help us to improve Ultimate-Guitar.com Take our survey!
×
Author
Difficulty
intermediate
Artist:Skid Row
Song:Beat Yourself Blind
Album:Subhuman Race
Bassist:Rachel Bolan
Tabber:Dev Fuld

This is one of my favorite songs off this album. Has a heavy bass part.

Key:
h = hammer on
x = times a number
* = let it ring
/ = slide up

Intro
G:--------------------|-------------------|
D:-------------------5|-------------------|
A:5h7-7---5h7--5-6-7--|5h7-7---5h7-------5|
E:------0-------------|------0-----0-5-7--|

Verse
G:----------------------------|----------------------------|
D:------5------------------0-5|------5---------------------|
A:5-7-7---7-7-5-7-7--7--------|5-7-7---7-7-5-7-7--7-------5|
E:---------------------5-7----|---------------------0-5-7--|

Pre-Chorus
G:----|
D:----|
A:----|
E:0x32|

Chorus is the Intro

Bridge
G:-----|-----------|-----|--------------|
D:-----|-----------|-----|--------------|
A:5*-3*|Verse riffs|5*-3*|Verse Riffs x2|
E:-----|-----------|-----|--------------|

G:--------|
D:--------|  
A:--------|
E:0-2/5-3*|  

During the Chorus and later in the bridge you'll hear this...
G:-----------|
D:7-6-5-6-7-8|
A:-----------|
E:-----------|

That's it. All the parts are there, you just gotta put them in order. This is an awesome 
song, enjoy. Any questions or comments, e-mail me at rocklvson@yahoo.com
Suggest correction
Give kudos to tab author, rate the tab!
1 2 3 4 5
comments
print report bad tab
guest
You may want to rate the tab now too:
select rating
Wanna post a correction for this tab? Suggest correction