Oops, an error
Loading. Please wait.

Bonehead Bass Tab

version 1
version 1

Whole song

Interactive

302 views 1 this week
no commentswrite comment
1 2 3 4 5
3 more votes to show rating
add to favorites
launch autoscroll
font size
0
reset
guitar tuner
Autoscroll
slow
fast
+/-
esc
set tempo
stop
Help us to improve Ultimate-Guitar.com Take our survey!
×
Author
Difficulty
advanced
Artist:Skid Row
Song:Bonehead
Album:Subhuman Race
Bassist:Rachel Bolan
Tabber:Dev Fuld

This is an awesome and fun song to play. There are some things that are hard 
to nail so it sounds just right, but you'll get it.

Key:
* = let it ring
/ = slide up 
> = slide down

*Guitar Intro*

Intro
G:-------------------|-------------------|-------------------|-------------------|
D:-------------------|-------------------|-------------------|-------------------|
A:6666------3333-5555|6666------3333-5555|6666------3333-5555|6666------3333-5555|
E:-----5555----------|-----5555----------|-----5555----------|-----5555----------|

G:------------------------|------------------------|
D:------------------------|------------------------|
A:------------------------|------------------------|
E:3-4-5-3-0--3-3-0-3--3-0*|3-4-5-3-0--3-3-0-3--3-0*|

G:------------------------|---------------------------|
D:------------------------|---------------------------|
A:------------------------|---------------------------|
E:3-4-5-3-0--3-3-0-3--3-0*|3-4-5-3-0--3-3-0-3--3-2-1-0|

Verse
G:---------------|---------------|---------------|---------------|
D:---------------|---------------|---------------|---------------|
A:---------------|---------------|---------------|---------------|
E:000000000-2-1-0|000000000-2-1-0|000000000-2-1-0|000000000-2-1-0|

G:---------------|---------------|---------------|------------|
D:---------------|---------------|---------------|------------|
A:---------------|---------------|---------------|------------|
E:000000000-2-1-0|000000000-2-1-0|000000000-2-1-0|000000000000|

Like Intro
G:-------------------|-------------------|-------------------|--------------------|
D:-------------------|-------------------|-------------------|--------------------|
A:6666------3333-5555|6666------3333-5555|6666------3333-5555|6666------3333------|
E:-----5555----------|-----5555----------|-----5555----------|-----5555------2-1-0|

Verse

Chorus
G:------------------------|------------------------|
D:------------------------|------------------------|
A:------------------------|------------------------|
E:3-4-5-3-0--3-3-0-3--3-0*|3-4-5-3-0--3-3-0-3--3-0*|

G:------------------------|------------------------|
D:------------------------|------------------------|
A:------------------------|------------------------|
E:3-4-5-3-0--3-3-0-3--3-0*|333333333333333333333333|

G:------------------------|------------------------|
D:------------------------|------------------------|
A:------------------------|------------------------|
E:3-4-5-3-0--3-3-0-3--3-0*|3-4-5-3-0--3-3-0-3--3-0*|

G:------------------------|------------------------|
D:------------------------|------------------------|
A:------------------------|------------------------|
E:3-4-5-3-0--3-3-0-3--3-0*|333333333333333333333333|

Bridge
G:---------------|---------------|---------------|---------------|
D:---------------|---------------|---------------|---------------|
A:6>5---------3/5|6>5---------3/5|6>5---------3/5|6>5---------3/5|
E:----3/5-5/8----|----3/5-5/8----|----3/5-5/8----|----3/5-5/8----|

Pre-Solo
G:-------------------|-------------------|-------------------|--------------------|
D:-------------------|-------------------|-------------------|--------------------|
A:6666------3333-5555|6666------3333-5555|6666------3333-5555|6666------3333------|
E:-----5555----------|-----5555----------|-----5555----------|-----5555------2-1-0|

Solo
G:---------------|---------------|---------------|---------------|
D:---------------|---------------|---------------|---------------|
A:---------------|---------------|---------------|---------------|
E:000000000-2-1-0|000000000-2-1-0|000000000-2-1-0|000000000-2-1-0|

Chorus

End
G:---------------|---------------|---------------|-----------|
D:---------------|---------------|---------------|-----------|
A:6>5---------3/5|6>5---------3/5|6>5---------3/5|6>5--------|
E:----3/5-5/8----|----3/5-5/8----|----3/5-5/8----|----3/5-5/8|

That's it. This is a heavy tune to play. Really fun. The bass just drives the 
song, and I love the guitar solo in this song. I've already put it in order 
for you. Any questions or comments, e-mail me at rocklvson@yahoo.com
Suggest correction
Give kudos to tab author, rate the tab!
1 2 3 4 5
comments
print report bad tab
guest
You may want to rate the tab now too:
select rating
Wanna post a correction for this tab? Suggest correction