Oops, an error
Loading. Please wait.

Forever Tab

version 1
version 1

Whole song

Interactive

9,247 views 6 this week
2 commentsread comments
1 2 3 4 5
accurate
x 3
add to favorites
launch autoscroll
font size
0
reset
how to read this tab
guitar tuner
Tab Pro tools
  • play this tab
  • loop segment
  • change instrument
  • show fretboard
  • metronome
×
Best way to learn
"Forever"
Autoscroll
slow
fast
+/-
esc
set tempo
stop
Contributor
Banda:Skid Row
Cancion:Forever
Album:40 Seasons:The best of Skid Row

 Riff 1  (x2)                                                          1
|-------------------------------------------------------------------|-----|
|-------------------------------------------------------------------|-----|
|----4--4--4--4--4-4--4--4--4--4---4----4----4----4----4---4----4---|--4^-|
|----4--4--4--4--4-4--4--4--4--4---4----4----4----4----4---4----4---|-----|
|-\--2--2--2--2--2-2--2--2--2--2-0-2-00-2-00-2-00-2-00-2-2-2-22-2-22|-----|
|-\-2-22-22-22-22-4-44-44-44-44-------------------------------------|-----|
    . .. .. .. .. . .. .. .. ..  .   ..   ..   ..   ..   .   ..   ..

Riff 2 (x2)
|----------------|---------------|-----------------|
|----------------|---------------|-----------------|
|-----------66-6-|----------22-2-|-----------------|
|--66666666-66-6-|--2222222-22-2-|-----------44-4--|
|--44444444-44-4-|--0000000-00-0-|--44444444-44-4--|
|----------------|---------------|--22222222-22-2--|
   ........         .......         ........
|-----------------------|
|-----------------------|
|--66-6\4/66-6-4422-22--|
|--66-6\4/66-6-4422-22--|
|--44-4\2/44-4-2200-00--|
|-----------------------|

Corte 1 (x2)
|------------------|--------------|
|------------------|--------------|
|--(4)-44-4-4-222--|666666666-222-|
|--(4)-44-4-4-222--|666666666-222-|
|--(2)-22-2-2-000--|444444444-000-|
|------------------|--------------|

 Corte 2
|-----------|
|-----------|
|-----------|
|--4-6-7-9--|
|--4-6-7-9--|
|--2-4-5-7--|

Coro
|--------------|-----------|-------------|-----------|
|-------4/5-4--|-------4-5-|--------4/5--|-----------|
|----4-4-----4-|----4-4----|-----4-4---4-|----4---4--|
|----4---------|----4------|-----4-------|----4---4--|
|----2---------|----2------|--00-2-------|--222-222--|
|--22----------|--44-------|-------------|-----------|
   ..             ..          ..            ..  ..

Riff 1(x1)
Riff 2(x2)
Corte1(x2)

Riff 3
|--------------------------|
|-----2----4---------------|
|----2-2----4---6--4--2--4-|
|---2---2-4--4---6-4--2--4-|
|--0-----2-----4---2--0--2-|
|--------------------------|

|-------------|
|-------------|
|-------------|
|--4-6-7-9-11-|
|--4-6-7-9-11-|
|--2-4-5-7-9--|

Riff 2 Durante el solo

etc.
comments
We did not receive enough feedback on this tab! Please rate:
print report bad tab
1 2 3 4 5
2 comments total.
+1 reply
Foreverskidrow wrote on December 4 2008, 03:24 pm

Afinacion Estandar : e b g d a E

0 reply
fretman5000 wrote on October 1 2009, 09:20 pm

no solo but oh well nice tab on a great song, too bad not many ppl know bout this song

I want to post or [tab]
guest
You may want to rate the tab now too:
select rating
Please do not post tabs as comments. Select "correction" instead!