Oops, an error
Loading. Please wait.

I Remember You Bass Tab

version 1
version 1

Whole song

Interactive

19,796 views 39 this week
1 commentread comment
1 2 3 4 5
accurate
x 6
add to favorites
launch autoscroll
font size
0
reset
guitar tuner
Tab Pro tools
  • play this tab
  • loop segment
  • change instrument
  • show fretboard
  • metronome
×
Best way to learn
"I Remember You"
Autoscroll
slow
fast
+/-
esc
set tempo
stop
Contributor
Difficulty
novice
By christopher Mcwhirter

This Tab Might Be A Bit Wierd and Shit Through the Chorus!

I Remember You
Skid Row

Acoustic Starts First: Bass Starts At:

And When you needed me i came through...

G|--------------------------------|
D|--------------------------------|
A|-5-----5---------------3----3---|
E|--------------------------------|

Verse Two:

G-----------------------|-----------------------|
D-----------------------|-----------------------|
A-----------3--3--3-2-0-|-----------3--3--3-2-0-|
E--3--3--3--------------|--3--3--3--------------|

G-----------------------|-----------------------|
D-----------------------|-----------------------|
A-----------3--3--3-2-0-|-5---5---5---3---3---3-|
E--3--3--3--------------|-----------------------|

G|--------------------------------|
D|--------------------------------|
A|-5-----5---------------3----3---|
E|--------------------------------|

Chorus:

G|-------------------------------------------
D|-------------------------------------------
A|-----------5--5--5--------------3--2-3-2-0-
E|--3--3--3-----------0--0--0----------------
   Rem Yes..Wak Hand..Lov sand....I Remember You
G|-------------------------------------------
D|-------------------------------------------
A|-----------5--5--5--------------3--2-3-2-0-
E|--3--3--3-----------0--0--0----------------
   Trgh Nite..To, Day..i say......I Remember You

Verse 3, 
Then:
We Had Our Share of Hard Times...

G-------------------|--------------------0-0-0-0-0-0-|
D-------------------|-----------0--0--0--------------|
A--0--0--0----------|--0--0--0-----------------------|
E----------0--0--0--|--------------------------------|
  Remember this is a Slow Song so Each note is 2beats

Then Comes the solo: But You play This on bass:

G-----------------------|-----------------------|
D-----------------------|-----------------------| x2
A-----------3--3--3-2-0-|-----------3--3--3-2-0-|
E--3--3--3--------------|--3--3--3--------------|

G-----------------------|-----------------------|
D-----------------------|-----------------------| x1
A-----------3--3--3-2-0-|-5---5---5---3---3---3-|
E--3--3--3--------------|-----------------------|

Then Play Above During the Acoustic Part Again...

Then Chorus 

Then End:

G--------------------------|-------------------|
D--------------------------|-5-7-5--0--2--0----|
A----------3--3--3---------|----------------0--|
E--3--3--3---------3--3--3-|------------------3|

Or if you think im weird and shite and Can't Follow this then try the Chords: 

G                       C
Woke up to the sound of pouring rain 
G                                C
The wind would whisper and I'd think of you 
G                                   C
And all the tears you cried, that called my name 
D                      C
And when you needed me I came through 

G                         C
I paint a picture of the days gone by 
G                                   C
When love went blind and you would make me see 
G                     C
I'd stare a lifetime into your eyes 
D                         C
So that I knew you were there for me 
D                          C
Time after time you were there for me 

G                  D
Remember yesterday, walking hand in hand 
Em                        C    D      G
Love letters in the sand, I remember you 
                            D
Through the sleepless nights and every endless day 
Em                      C    D      G       C    G    C
I'd wanna hear you say, I remember you 

G                             C
We spend the summer with the top rolled down 
G                       C
Wished ever after would be like this 
G                             C
You said I love you babe, without a sound 
D                            C
I said I'd give my life for just one kiss 
D                            C
I'd live for your smile and die for your kiss 

G                  D
Remember yesterday, walking hand in hand 
Em                        C    D      G
Love letters in the sand, I remember you 
                            D
Through the sleepless nights and every endless day 
Em                      C    D      G
I'd wanna hear you say, I remember you 

Am
We've had our share of hard times 
Em
But that's the price we paid 
Am                             D
And through it all we kept the promise that we made 

I swear you'll never be lonely 


G                       C   
Woke up to the sound of pouring rain 
G               C
Washed away a dream of you 
G                            C
But nothing else could ever take you away 
D                            C
'Cause you'll always be my dream come true 
D              C
Oh my darling, I love you 

G                  D
Remember yesterday, walking hand in hand 
Em                        C    D      G
Love letters in the sand, I remember you 
                            D
Through the sleepless nights and every endless day 
Em                      C    D      G
I'd wanna hear you say, I remember you 

G                  D
Remember yesterday, walking hand in hand 
Em                        C    D      G
Love letters in the sand, I remember you 
                            D
Through the sleepless nights and every endless day 
Em                      C    D      C    D      G
I'd wanna hear you say, I remember, I remember you


comments
print report bad tab
1 comment total.
0 reply
TrojanWarhorse wrote on March 28 2011, 05:16 am

If you listen, u will hear that there is bass from the start.
also, where is the run down leading into the outro?

I want to post or [tab]
guest
You may want to rate the tab now too:
select rating
Please do not post tabs as comments. Select "correction" instead!