Oops, an error
Loading. Please wait.

I Remember You Tab

version 1
version 1

Whole song

Interactive

Video

170,447 views 255 this week
3 commentsread comments
1 2 3 4 5
x 9
add to favorites
launch autoscroll
font size
0
reset
how to read this tab
guitar tuner
Autoscroll
slow
fast
+/-
esc
set tempo
stop
Help us to improve Ultimate-Guitar.com Take our survey!
×
THE CHORDS USED:

          G5                    C                 G5open                  D
      3 5 5 x x x          x 3 2 0 1 0          3 x 0 0 3 3          x x 0 2 3 2

          Em                   Am                   D5                  Dsus4
      0 2 2 0 0 0          x 0 2 2 1 0          x x 0 2 3 x          x x 0 2 3 3


 [Intro]

    Gtr I
e|-3-3-----------3-------------|---0-----------0---------------|
B|-3-------3-(3)------------3--|-3-3-----3-(3)-3-----0h3p0-----|
G|-0-------0-(0)---x-------(0)-|-0-0-0-0-0-(0)-0---0-------0---|
D|-0---0-0-0-(0)---x-----0-----|-2---2-2-2-(2)---------------0-|
A|-2---2-2-----------0h2-------|-3-------3-(3)---3-------------|
E|-3---3-3---------------------|-------------------------------|


e|-3-3-----------3--------------|
B|-3-------3-(3)------------3---|
G|-0-------0-(0)---x-------(0)--|
D|-0---0-0-0-(0)---x-----0------|
A|-2---2-2-----------0h2--------|
E|-3---3-3----------------------|


                                  [Verse 1]

e|---0-----------0---------------||-3-3-----------3-------------|
B|-3-3-----3-(3)-3-----0h3p0-----||-3-------3-(3)------------3--|
G|-0-0-0-0-0-(0)-0---0-------0---||-0-------0-(0)---x-------(0)-|
D|-2---2-2-2-(2)---------------0-||-0---0-0-0-(0)---x-----0-----|
A|-3-------3-(3)---3-------------||-2---2-2-----------0h2-------|
E|-------------------------------||-3---3-3---------------------|


e|---0-----------0-----------------|
B|-3-3-----3-(3)-3-----0h3p0-------|
G|-0-0-0-0-0-(0)-0---0-------0-----|
D|-2---2-2-2-(2)---------------0---|
A|-3-------3-(3)---3---------------|
E|---------------------------------|


e|-3-3-3---3-----3-------------|---0-------------0---------------|
B|-3-3-3---3-(3)------------3--|-3-3-------3-(3)-3-----0h3p0-----|
G|-0-0-0-0-0-(0)---x-------(0)-|-0-0--0--0-0-(0)-0---0-------0---|
D|-0-----0-0-(0)---x-----0-----|-2----2--2-2-(2)---------------0-|
A|-2-----------------0h2-------|-3---(3)---3-(3)---3-------------|
E|-3---------------------------|---------------------------------|


e|-3-3-----------3--------------|
B|-3-------3-(3)------------3---|
G|-0-------0-(0)---x-------(0)--|
D|-0---0-0-0-(0)---x-----0------|
A|-2---2-2-----------0h2--------|
E|-3---3-3----------------------|


e|---0-------------0----------------|
B|-3-3-----3-3-(3)-3-----0h=3p0-----|
G|-0-0--0--0-0-(0)-0---0--------0---|
D|-2----2--2-2-(2)----------------0-|
A|-3---(3)---3-(3)---3--------------|
E|----------------------------------|
|
 | Gtr II
e|----------------------------------|
B|----------------------------------|
G|----------------------------------|
D|----------------------------------|
A|----------------------------------|
E|-----------------------x\---------|


e|--2--2-----2-2--2--2-2----2---|--0--0----3---(3)----0---||
B|--3--3-----3-3--3--3-3----3---|--1--1-1--1---(1)----1---||
G|--2--2--2--2-2--2--2-2----2---|--0--0-0--0---(0)----0---||
D|--0-----0-----------------0---|-(2)---2--2---(2)---(2)--||
A|-(0)---(0)---------------(0)--|--3-------3---(3)----3---||
E|------------------------------|-------------------------||
|
 |                                         \7
e|------------------------------|-------------------------||
B|--------------------------8p7-|-------------------------||
G|--7--------7---(7)-----7------|--5------<3>-(<3>)-------||
D|--7--------7---(7)---7--------|--5----------------------||
A|--5--------5---(5)------------|--3----------------------||
E|------------------------------|-------------------------||


 [Verse 2]

  G5
  Gtr II
   |
   /
e|-3-3-3---3-----3-------------|---0-------------0---------------|
B|-3-3-3---3-(3)------------3--|-3-3-------3-(3)-3-----0h3p0-----|
G|-0-0-0-0-0-(0)---x-------(0)-|-0-0--0--0-0-(0)-0---0-------0---|
D|-0-----0-0-(0)---x-----0-----|-2----2--2-2-(2)---------------0-|
A|-2-----------------0h2-------|-3---(3)---3-(3)---3-------------|
E|-3---------------------------|---------------------------------|


e|-3-3-----------3--------------|
B|-3-------3-(3)------------3---|
G|-0-------0-(0)---x-------(0)--|
D|-0---0-0-0-(0)---x-----0------|
A|-2---2-2-----------0h2--------|
E|-3---3-3----------------------|


e|----0--------------0---------------|
B|-3--3--------3-(3)-3-----0h3p0-----|
G|-0--0---0--0-0-(0)-0---0-------0---|
D|-2------2--2-2-(2)---------------0-|
A|-3-(3)-(3)---3-(3)---3-------------|
E|-----------------------------------|


e|-3-3-----------3-------------|---0-------------0-----------------|
B|-3-------3-(3)------------3--|-3-3-----3-3-(3)-3-----0h3p0-------|
G|-0-------0-(0)---x-------(0)-|-0-0--0--0-0-(0)-0---0-------0-----|
D|-0---0-0-0-(0)---x-----0-----|-2----2--2-2-(2)---------------0---|
A|-2---2-2-----------0h2-------|-3---(3)---3-(3)---3---------------|
E|-3---3-3---------------------|-----------------------------------|


e|--2--2-----2-2--2--2-2----2---|-0---0-(0)-----0--|
B|--3--3-----3-3--3--3-3----3---|-1---1-(1)-----1--|
G|--2--2--2--2-2--2--2-2----2---|-0---0-(0)-----0--|
D|--0-----0-----------------0---|-2---2-(2)-----2--|
A|-(0)---(0)---------------(0)--|-3---3-(3)-----3--|
E|------------------------------|------------------|
|
 | Gtr II
e|------------------------------|------------------|
B|--------------------------8p7-|------------------|
G|--7--------7---(7)-----7------|-5---5-(5)-----5--|
D|--7--------7---(7)---7--------|-5---5-(5)-----5--|
A|--5--------5---(5)------------|-3---3-(3)-5s7----|
E|------------------------------|------------------|


e|--2--2-----2--2---2--2-2----2---|
B|--3--3-----3--3---3--3-3----3---|
G|--2--2--2--2--2---2--2-2----2---|
D|--0-----0----(0)-(0)--------0---|
A|-(0)---(0)-----------------(0)--|
E|--------------------------------|
|
e|--------------------------------|
B|----------------------------8p7-|
G|--7--------7-----(7)-----7------|
D|--7--------7-----(7)---7--------|
A|--5--------5-----(5)------------|
E|--------------------------------|


                     [Chorus]

  C                   G5open               D
  Gtr I
  |  |  | | |         |   |  |   |         |   | |   |
  /  /  / / /         /   /  /   /         /   / /   /

   Gtr II
         ~
e|-----------------||---------------------|-----------------|
B|-------8---------||o--------------------|-----------------|
G|-5--9------------||---------------------|-7---7-7-----7---|
D|-5---------------||--5---5-(5)----------|-7---7-7--/9---9-|
A|-3---------------||o-5---5-(5)--------5-|-5---5-5---------|
E|-----------------||--3---3-(3)--3-5s7---|-----------------|
|
 | Gtr III
e|-----------------||---------------------|-----------------|
B|-----------------||o-3---3-(3)----------|-----------------|
G|-5--5--5-5-5-----||--0---0-(0)----------|-7---7-7---------|
D|-5--5--5-5-5-----||--0---0-(0)----------|-7---7-7---------|
A|-3--3--3-3-3-----||o--------------------|-5---5-5---------|
E|-------------0-2-||--3---3-(3)----------|-----------------|


   Em             C                    C
   |   |  |   |   |   | |  |           |
   /   /  /   /   /   / /  /           /

e|--------------|-------------------||--------------|
B|--------------|------------------o||--------------|
G|-9---9-(9)----|-5-----------------||-5------------|
D|-9---9-(9)----|-5-----------------||-5------------|
A|-7---7-(7)----|-3--------2-3-2-0-o||-3------------|
E|--------------|-------------------||--------/x\---|
|
e|--------------|-------------------||--------------|
B|--------------|------------------o||--------------|
G|--------------|-5---5-5-----------||-5------------|
D|-2---2-(2)----|-5---5-5-----------||-5------------|
A|-2---2-(2)----|-3---3-3--2-3-2-0-o||-3------------|
E|-0---0-(0)----|-------------------||--------/x\---|


   Gtr I
e|-3-3-----------3-------------|---0-----------0---------------|
B|-3-------3-(3)------------3--|-3-3-----3-(3)-3-----0h3p0-----|
G|-0-------0-(0)---x-------(0)-|-0-0-0-0-0-(0)-0---0-------0---|
D|-0---0-0-0-(0)---x-----0-----|-2---2-2-2-(2)---------------0-|
A|-2---2-2-----------0h2-------|-3-------3-(3)---3-------------|
E|-3---3-3---------------------|-------------------------------|
|
 | Gtr II
e|-----------------------------|-------------------------------|
B|-----------------------------|-------------------------------|
G|-----------------------------|-5-------5-(5)-----------------|
D|-5-------5-(5)---------------|-5-------5-(5)-----------------|
A|-5-------5-(5)---------------|-3-------3-(3)-----------------|
E|-3-------3-(3)---------------|-------------------------------|


e|-3-3-----------3--------------|
B|-3-------3-(3)------------3---|
G|-0-------0-(0)---x-------(0)--|
D|-0---0-0-0-(0)---x-----0------|
A|-2---2-2-----------0h2--------|
E|-3---3-3----------------------|
|
e|------------------------------|
B|------------------------------|
G|------------------------------|
D|-5-------5-(5)----------------|
A|-5-------5-(5)----------------|
E|-3-------3-(3)----------------|


                                     [Verse 3]

e|---0-----------0------------------||-3--3-------------3--------------|
B|-3-3-----3-(3)-3------0h==3p0-----||-3-(3)-----3-(3)--3----------(3)-|
G|-0-0-0-0-0-(0)-0---0----------0---||-0---------0-(0)-(0)-x--------0--|
D|-2---2-2-2-(2)------------------0-||-0-----0-0-0-(0)-----x-----0-----|
A|-3-------3-(3)---3----------------||-2-----2-2-------------0h2-------|
E|----------------------------------||-3-----3-3-----------------------|
 |
 |                                     Gtr IV
e|----------------------------------||---------------------------------|
B|----------------------------------||---------------------------------|
G|-5-------5-(5)-------(5)\---------||---------------------------------|
D|-5-------5-(5)-------(5)\---------||---------------------------------|
A|-3-------3-(3)-------(3)\---------||---------------------------------|
E|----------------------------------||---------------------------------|


e|---0-----0------0-----------------------------|
B|-3-3-3---3-(3)--3-------------0h3p===0--------|
G|-0-0-0-0-0-(0)--0----------0------------0-----|
D|-2---2---2-(2)-----------------------------0--|
A|-3-------3-(3)---------3----------------------|
E|----------------------------------------------|
|
e|----------------------------------------------|
B|------------------------------------------14--|
G|---------------14b16r(14)p12-14---12------14--|
D|---------------------------------------14-----|
A|----------------------------------------------|
E|----------------------------------------------|


e|--3--3-------------3--------------|---0-----0--------0---------------------|
B|--3-(3)-----3-(3)--3----------(3)-|-3-3-3---3---(3)--3-------0h3p===0------|
G|--0---------0-(0)-(0)-x--------0--|-0-0-0-0-0---(0)--0----0------------0---|
D|--0-----0-0-0-(0)-----x-----0-----|-2---2---2---(2)----------------------0-|
A|--2-----2-2-------------0h2-------|-3-------3---(3)-----3------------------|
E|--3-----3-3-----------------------|----------------------------------------|
|
 |  ~~
e|----------------------------------|----------------------------------------|
B|----------------------------------|----------------------------------------|
G|-12-------------------------------|-----------x-12--12------12-------------|
D|----------------------------------|-----------x-12--12------12-------------|
A|----------------------------------|--------------------14---14s==12---10---|
E|----------------------------------|----------------------------------------|


e|--3--3--------3-(3)--3----------------|
B|--3-(3)-------3-(3)--3----------(3)---|
G|--0------0--0-0-(0)-(0)-x--------0----|
D|--0------0--0-0-(0)-----x-----0-------|
A|--2-----(2)---------------0h2---------|
E|--3-----------------------------------|
 |
 |  ~~
e|--------------------------------------|
B|--------------------------------------|
G|--------------------------------------|
D|--------------------------------------|
A|-10-----------------------------------|
E|--------------------------------------|


                                    D                     C
                                    Gtr I
                                    |   |  |      |       |   |  |   |
                                    /   /  /      /       /   /  /   /

                                    Gtr II
e|---0-----0-----0----------------|---------------------|----------------|
B|-3-3-3---3-(3)-3------0h3p0-----|---------------8p7---|----------------|
G|-0-0-0-0-0-(0)-0----0-------0---|-7---7-(7)---7-----9-|-5---5-(5)--5---|
D|-2---2---2-(2)----------------0-|-7---7-(7)-7---------|-5---5-(5)--5---|
A|-3-------3-(3)---3--------------|-5---5-(5)-----------|-3---3-(3)--3---|
E|--------------------------------|---------------------|----------------|
 |
 | Gtr III
e|--------------------------------|---------------------|----------------|
B|--------------------------------|---------------------|----------------|
G|--------------------------------|-7---7-(7)-----7-----|-5---5-(5)--5---|
D|--------------------------------|-7---7-(7)-----7-----|-5---5-(5)--5---|
A|-----------------x\-------------|-5---5-(5)-----5-----|-3---3-(3)--3---|
E|-----------------x\-------------|---------------------|----------------|


   D                     C                         C
   |   |  |      |        |      |    | | |        |
   /   /  /      /        /      /    / / /        /

e|---------------------|------------------------||-------------|
B|---------------8p7---|--------------8---------||-------------|
G|-7---7-(7)---7-----9-|------------9-----------||-5-----------|
D|-7---7-(7)-7---------|-10-10-(10)-------------||-5-----------|
A|-5---5-(5)-----------|-10---------------------||-3-----------|
E|---------------------|--8---------------------||--------/x\--|
|
e|---------------------|------------------------||-------------|
B|---------------------|------------------------||-------------|
G|-7---7-(7)-----7-----|--5------5----5-5-5-----||-5-----------|
D|-7---7-(7)-----7-----|--5------5----5-5-5-----||-5-----------|
A|-5---5-(5)-----5-----|--3------3----3-3-3-----||-3-----------|
E|---------------------|--------------------0-2-||--------/x\--|


                                       [Bridge]

   G5open                                     Am                 Em
   |   |  |    |      |    |  |    |     |    |             |    |
   /   /  /    /      /    /  /    /     o    /             o    /

e|-----------------|------------------||------------------|------------------|
B|---------------3-|-(3)--------------||------------------|------------------|
G|-----5-(5)-4-----|-------5-(5)-4----||-2----------------|------------------|
D|-5---------------|------------------||-2----------------|-2----------------|
A|-5---------------|------------------||-0----------------|-2----------------|
E|-3---------------|------------------||------------------|-0----------------|
|
e|-----------------|------------------||------------------|------------------|
B|-----------------|------------------||------------------|------------------|
G|-----------------|------------------||------------------|------------------|
D|-5---5-(5)---5---|--5----5-(5)---5--||-2----------------|-2----------------|
A|-5---5-(5)---5---|--5----5-(5)---5--||-0----3-2-0-------|-2----3-2-0-------|
E|-3---3-(3)---3---|--3----3-(3)---3--||------------3b3.5-|-0----------3b3.5-|


        Am                   D5         Dsus4                             G5open
   |    |                    |    ||||  |     |  |    |    |  |     |     |
   o    /                    /    ////  /     /  /    /    /  /     /     /

                                        Gtr V
e|-------------------------|----------|-------------------------------------||
B|-------------------------|----------|-----------------------------------8-||
G|-2-----------------------|-2--------|-----------------------------7h9p7---||
D|-2-----------------------|-0--------|---------------5h7p=5--7h9p7---------||
A|-0-----------------------|----------|-0h2p0-5h=7p=5-----------------------||
E|-------------------------|----------|-------------------------------------||
|
e|-------------------------|----------|-3-----3-(3)---3---(3)-3-----3-------||
B|-------------------------|-3--------|-3-----3-(3)---3---(3)-3-----3-------||
G|-------------------------|-2--------|-2-----2-(2)---2---(2)-2-----2-------||
D|-2-----------------------|-0--------|-0-----0-(0)---0---(0)-0-----0-----5-||
A|-0----3b4==(3)r(3)-2-3-3-|----------|-----------------------------------5-||
E|-------------------------|----------|-----------------------------------3-||


 [Guitar solo]

  G5open                 C                       G5open
    |    |  |             |           |  |   |||  |   | | |    |   |       |
    /    /  /             /           /  /   ///  /   / / /    /   /       /
                                      ~~~~~~
e|----------------------|-----------------------|-----------------------------|
B|-(8)----------(8)-7h8-|-8b10r=(8)p7-8-(8)-----|-7-8---8---8----8---8---8----|
G|----------------------|-----------------------|-----9---7-------------------|
D|----------------------|-----------------------|-------------10---9---7---5--|
A|----------------------|-----------------------|-----------------------------|
E|----------------------|-----------------------|-----------------------------|
|
e|----------------------|-----------------------|-----------------------------|
B|----------------------|-----------------------|-----------------------------|
G|----------------------|-5-----------5--5------|-----------------------------|
D|-(5)---5-(5)----------|-5-----------5--5------|-5------------5---5----------|
A|-(5)---5-(5)----------|-3-----------3--3------|-5------------5---5----------|
E|-(3)---3-(3)----------|-----------------------|-3------------3---3----------|


   C
    |      |  |       |
    /      /  /       /
    ~~~~~
e|----------------------------|
B|----------------------------|
G|-[7]b9---7\-------------7S9-|
D|------------------7-9-5-----|
A|----------------5-----------|
E|--------------3-------------|
|
e|----------------------------|
B|----------------------------|
G|--5------5--5---------------|
D|--5------5--5---------------|
A|--3------3--3---------------|
E|----------------------------|


   G5open
   |                |        |   |
   /                /        /   /
         ~~~~~~~             ~~
e|---10s15-(15)-12-----------------------------------|
B|-8---------------15p12-----------------------------|
G|-----------------------14p12--14b16-14pb16r(14)p12-|
D|---------------------------------------------------|
A|---------------------------------------------------|
E|---------------------------------------------------|
|
e|---------------------------------------------------|
B|---------------------------------------------------|
G|---------------------------------------------------|
D|-5----------------5--------5-----------------------|
A|-5----------------5--------5-----------------------|
E|-3----------------3--------3-----------------------|


   C
    |                  |    |     |
    /                  /    /     /
                                  \3
                       ~~~~~~~~
e|------------------------------------|
B|-------------15b17-[15]-(15)--------|
G|-14p12-----------------------0-(0)--|
D|----------12------------------------|
A|-------12---------------------------|
E|------------------------------------|
|
e|------------------------------------|
B|------------------------------------|
G|--5------------------5----5---------|
D|--5------------------5----5---------|
A|--3------------------3----3---------|
E|------------------------------------|


   D
    |    | |                |   |   |       |
    /    / /                /   /   /       /
                            ~~~~~~~
e|-17b19--17pb19r(17)p==15-17-(17)---------------------------|
B|-----------------------------------------------------------|
G|---------------------------------14b16==(14)r(14)p12----14-|
D|-----------------------------------------------------14----|
A|-----------------------------------------------------------|
E|-----------------------------------------------------------|
|
e|-----------------------------------------------------------|
B|-----------------------------------------------------------|
G|--7------x----------x-----7--(7)----------7----------------|
D|--7------x----------x-----7--(7)----------7----------------|
A|--5------x----------x-----5--(5)----------5----------------|
E|-----------------------------------------------------------|


   C
    |                                          |        | ||
    /                                          /        / //
                                                        ~~~~~~~~~
e|--------------------------------------------------------------|
B|--------------------------------------------------------------|
G|-14----12-------------------------------------------------/12-|
D|----14----14p12-----------------------------------------------|
A|----------------14p12s10-12b13==(12)r==(12)-10----12-10-------|
E|-----------------------------------------------12-------------|
|
e|--------------------------------------------------------------|
B|--------------------------------------------------------------|
G|--5-----------------------x----------x-------5--------5-------|
D|--5-----------------------x----------x-------5--------5-------|
A|--3-----------------------x----------x-------3--------3-------|
E|--------------------------------------------------------------|


   D
     |         |     |    |   |
     /         /     /    /   /
  ~~~~~~
e|-------------------------------------|
B|-------------------------------------|
G|-(12)--12p11p9h11p=9s=4-4-5---4------|
D|----------------------------7---5b7==|
A|-------------------------------------|
E|-------------------------------------|
|
e|-------------------------------------|
B|-------------------------------------|
G|---7----x--x-7----(7)----------------|
D|---7----x--x-7----(7)----------------|
A|---5----x--x-5----(5)----------------|
E|-------------------------------------|


   C                    G5open       C           G5open
   |  |   |  |            |  |||||    |  |||||     |    |     |     |  ||
   /  /   /  /            /  /////    /  /////     /    /     /     /  //
                  \3
   ~~     ~~~~~~          ~~~~~~~~~~~~~~
e|--------------------|------------|-----------|--------------------------|
B|--------------------|------------|-----------|--------------------------|
G|------4-------------|-/12--------|-/7--------|-/[5]--(5)b7r(5)p4-(4)----|
D|-5r-----5-(5)--(5)--|------------|-----------|--------------------------|
A|--------------------|------------|-----------|--------------------------|
E|--------------------|------------|-----------|--------------------------|
|
e|--------------------|------------|-----------|--------------------------|
B|--------------------|------------|-----------|--------------------------|
G|-5--5---5-(5)-------|------------|-----------|--------------------------|
D|-5--5---5-(5)-------|------------|-----------|--------------------------|
A|-3--3---3-(3)-------|------------|-----------|--------------------------|
E|--------------------|---3--------|-----------|--------------------------|


              [Verse 3]
   C
    |   |||||
    /   /////
                 Gtr I
    ~~~
e|------------||-3-3-----------3-------------|---0-----------0---------------|
B|------------||-3-------3-(3)------------3--|-3-3-----3-(3)-3-----0h3p0-----|
G|-(4)--------||-0-------0-(0)---x-------(0)-|-0-0-0-0-0-(0)-0---0-------0---|
D|------------||-0---0-0-0-(0)---x-----0-----|-2---2-2-2-(2)---------------0-|
A|------------||-2---2-2-----------0h2-------|-3-------3-(3)---3-------------|
E|------------||-3---3-3---------------------|-------------------------------|


e|-3--3-------------3--------------|---0-----0-----0---------------|
B|-3-(3)-----3-(3)--3----------(3)-|-3-3-3---3-(3)-3-----0h3p0-----|
G|-0---------0-(0)-(0)-x--------0--|-0-0-0-0-0-(0)-0---0-------0---|
D|-0-----0-0-0-(0)-----x-----0-----|-2---2---2-(2)---------------0-|
A|-2-----2-2-------------0h2-------|-3-------3-(3)---3-------------|
E|-3-----3-3-----------------------|-------------------------------|


e|-3--3--------3-(3)--3---------------|
B|-3-(3)-------3-(3)--3----------(3)--|
G|-0------0--0-0-(0)-(0)-x--------0---|
D|-0------0--0-0-(0)-----x-----0------|
A|-2-----(2)---------------0h2--------|
E|-3----------------------------------|


e|---0-----0-(0)-------|-2-2---2-2--2--2-2---2---|-0---0-(0)--0---|
B|-3-3-3---3-(3)-3-3-3-|-3-3---3-3--3--3-3---3---|-1---1-(1)--1---|
G|-0-0-0-0-0-(0)-0-0-0-|-2-2-2-2-2--2--2-2---2---|-0---0-(0)--0---|
D|-2---2---2-(2)-2-2-2-|-0---0-----------0---0---|-2---2-(2)--2---|
A|-3-------3-(3)-3-3-0-|-0-------------------0---|-3---3-(3)--3---|
E|---------------------|-------------------------|----------------|
 |
 | Gtr II
 |                                                            \3
e|---------------------|-------------------------|----------------|
B|---------------------|---------------------8p7-|----------------|
G|---------------------|-7-----7---(7)-----7-----|-5---5-(5)--5---|
D|---------------------|-7-----7---(7)---7-------|-5---5-(5)--5---|
A|---------------------|-5-----5---(5)-----------|-3---3-(3)--3---|
E|---------------------|-------------------------|----------------|


                                           [Chorus]
                                            G5open
                                            Gtr I
                                             |   |  |   |
                                             /   /  /   /
                                             Gtr II
e|-2-2---2-2--2--2-2---2---|-0-----------||---------------------|
B|-3-3---3-3--3--3-3---3---|-1-----------||o--------------------|
G|-2-2-2-2-2--2--2-2---2---|-0-----------||---------------------|
D|-0---0-----------0---0---|-2-----------||--5---5-(5)----------|
A|-0-------------------0---|-3-----------||o-5---5-(5)--------5-|
E|-------------------------|-------------||--3---3-(3)--3-5s7---|
|
 |                                           Gtr III
e|-------------------------|-------------||---------------------|
B|---------------------8p7-|-------------||o-3---3-(3)----------|
G|-7-----7---(7)-----7-----|-5-----------||--0---0-(0)----------|
D|-7-----7---(7)---7-------|-5-----------||--0---0-(0)----------|
A|-5-----5---(5)-----------|-3-----------||o--------------------|
E|-------------------------|--------/x\--||--3---3-(3)----------|

   D                 Em             C
   |   | |   |       |   |  |   |   |   | |  |
   /   / /   /       /   /  /   /   /   / /  /
e|-----------------|--------------|-------------------||
B|-----------------|--------------|------------------o||
G|-7---7-7-----7---|-9---9-(9)----|-5-----------------||
D|-7---7-7--/9---9-|-9---9-(9)----|-5-----------------||
A|-5---5-5---------|-7---7-(7)----|-3--------2-3-2-0-o||
E|-----------------|--------------|-------------------||
|
e|-----------------|--------------|-------------------||
B|-----------------|--------------|------------------o||
G|-7---7-7---------|--------------|-5---5-5-----------||
D|-7---7-7---------|-2---2-(2)----|-5---5-5-----------||
A|-5---5-5---------|-2---2-(2)----|-3---3-3--2-3-2-0-o||
E|-----------------|-0---0-(0)----|-------------------||

   C
   |  |   | | | |   |   |     |   |   | | |   |
   /  /   / / / /   /   /     /   /   / / /   /
                          PM|     PM|
e|--------------------|---------------------------|
B|--------------------|---------------------------|
G|-5------------------|-5-----5-------5-5---------|
D|-5------------------|-5-----5-------5-5---------|
A|-3------------------|-3-3-3-3---3-3-3-3-2-3-2-0-|
E|--------------------|---------------------------|
 |
e|--------------------|---------------------------|
B|--------------------|---------------------------|
G|-5--5-x-x-5-5-x-x-5-|-5-----x-x-5---5-5---------|
D|-5--5-x-x-5-5-x-x-5-|-5-----x-x-5---5-5---------|
A|-3--3-x-x-3-3-x-x-3-|-3-----x-x-3---3-3-2h3p2-0-|
E|--------------------|---------------------------|


   C         G5open             D                 Em
   |   |   | |  |  | |          |  | | |    |     |   |  |  ||  |
   /   /   / /  /  / /          /  / / /    /     /   /  /  //  x
e|----------------------------|-----------------|------------------|
B|----------------------------|-----------------|------------------|
G|----------------------------|-7----7-7--------|-9---9-(9)--9-----|
D|-----------5-(5)------------|-7----7-7--------|-9---9-(9)--9-----|
A|-2-0-------5-(5)----------5-|-5----5-5--------|-7---7-(7)--7-----|
E|-----3-2-3-3-(3)---3h=5s7---|-----------------|------------------|
 |
 |                                          ~~~
e|----------------------------|-----------------|------------------|
B|----------------------------|-----------------|------------------|
G|----------------------------|-7--x-x-7-7------|------------------|
D|-----------5-(5)--(5)---x-x-|-7--x-x-7-7------|------------------|
A|-2-0-------5-(5)--(5)---x-x-|-5--x-x-5-5-[5]--|-2---2-(2)--------|
E|-----3-2-3-3-(3)--(3)---x-x-|-----------------|-0---0-(0)--------|


   C
    |     |  |  |  |  |  |
    /     /  /  /  /  /  /
   Gtr V
e|-15p12-------------15p12-------------15p12------------------------------|
B|-------15p12-------------15p12-------------15p12------------------------|
G|-------------14p12-------------14p12-------------14p12-14b16r(14)p12----|
D|---------------------------------------------------------------------14-|
A|------------------------------------------------------------------------|
E|------------------------------------------------------------------------|
|
e|------------------------------------------------------------------------|
B|------------------------------------------------------------------------|
G|--5-----5--5--5---------------------------------------------------------|
D|--5-----5--5--5---------------------------------------------------------|
A|--3-----3--3--3-----2--3--2--0------------------------------------------|
E|------------------------------------------------------------------------|


  G5open
    |      |  |  |      |
    /      /  /  /      /
    ~~~~~~~~~~~~~~~~
e|----------------------------|
B|----------------------------|
G|-12----------(12)-11h12p====|
D|----------------------------|
A|----------------------------|
E|----------------------------|
|
e|----------------------------|
B|----------------------------|
G|----------------------------|
D|--5---5-(5)----5------------|
A|--5---5-(5)----5------------|
E|--3---3-(3)----3------------|


   D                                     Em               C
    | |||   |     |  |                    | |||   |  ||   |
    / ///   /     /  /                    / ///   /  //   /
                                               \7
    ~~
e|-------------------------------------|----------------|----------------|
B|-------------------------------------|----------------|----------------|
G|-11-----(11)\-----11----12-----11----|----------------|-9--------------|
D|--------------/12----12-----11----12h|=14-------------|----------------|
A|-------------------------------------|----------------|----------------|
E|-------------------------------------|------0--(0)----|-8--------------|
 |
 |                                                                    \3
 |                         ~~~
e|-------------------------------------|----------------|----------------|
B|-------------------------------------|----------------|----------------|
G|--7---7---7--------------------------|----------------|-9------(9)-(9)-|
D|--7---7---7--------------------------|--2---2--(2)----|----------------|
A|--5---5---5-------------[5]----------|--2---2--(2)----|----------------|
E|-------------------------------------|--0---0--(0)----|-8------(8)-(8)-|

   Gtr I
e|---------3-------|---------0-------|
B|-----------3-----|-----3-----3-----|
G|-----0-------0---|-------0-----0---|
D|-------0-------0-|---2-----------0-|
A|---2-------------|-3---------------|
E|-3---------------|-----------------|


e|---------3-------|---------3s5S3-------|-^3----*|
B|-----------3-----|-----3---3s5S3-1s3S1-|-^3----*|
G|-----0-------0---|-------0-------2s4S2-|-^0----*|
D|-------0-------0-|---2-----------------|-^0----*|
A|---2-------------|-3-------------------|-^2----*|
E|-3---------------|---------------------|-^3----*|




            [Intro/Verse] (Play 2x, then 3x when the lyrics start)

                G                 Cadd2
          e|--3--3-3--3-3-3---|--------0----------|
          B|--0--0-0--0-0-0---|-3--3-3---0h3p0----|
          G|--0--0-0--0-0-0---|-0--0-0---------0--|
          D|--0--0-0--0-0-0---|-2--2-2------------|
          A|--2--2-2--2-2-2---|-3--3-3------------|
          E|--3--3-3--3-3-3---|-------------------|

          If you don't like this, you can work out your own strumming pattern.
          This is just how i started playing it and I just got used to it.


            [Pre Chorus/Mid verse]

               D              C
          e|-2--2-2--2-2-2-----------------|
          B|-3--3-3--3-3-3--1--1-1--1-1-1--|
          G|-2--2-2--2-2-2--0--0-0--0-0-0--|
          D|-0--0-0--0-0-0--2--2-2--2-2-2--|
          A|----------------3--3-3--3-3-3--|
          E|-------------------------------|

          Repeat Verse 3x

          Repeat Pre-chorus


            [Chorus]

                 G5              D5             E5               C5
          e|-----------------------------------------------------------------------|
          B|-----------------------------------------------------------------------|
          G|-------------------7-x-7----------9-x-9------------5-------------------|
          D|---5-x-5-----------7-x-7--------7-9-x-9---------9--5-------------------|
          A|---5-x-5--------5--5-x-5--5-7/9---7-x-7--7-9/11----3--2~~-3-2~~-0------|
          E|---3-x-3--3-5/7--------------------------------------------------------|

          You can also just play the power chords and let 'em ring.

          Post Chorus (Play 2x)
          G  G G  G G G    Cadd2  Cadd2 Cadd2  Cadd2 Cadd2 Cadd2

          Repeat Verse

          Repeat Pre-Chorus

          Repeat Chorus

          Repeat Post Chorus

          Bridge (Play once)

D  D D  D D D    Em  Em Em  Em Em Em    C  C C  C C C    D  D D  D D D    D  D D  D D D


          [Guitar Solo]                                             Slow bend
          e|-------------------------------------------------------------------|
          B|-8~~~-7h8-10~~--8-7-8~~~--7-8---8---8----8---8---8-----8b10r10-----|
          G|------------------------------9---7--------------------------------|
          D|--------------------------------------10---9---7-------------------|
          A|---------------------------------------------------10~~------------|
          E|-------------------------------------------------------------------|

          e|-8/15---15p12---------------------------------------------------|
          B|--------------15p12-------------------------------15b17~~~------|
          G|--------------------14p12-14b15-14p12-14p12----12---------------|
          D|--------------------------------------------14------------------|
          A|----------------------------------------------------------------|
          E|----------------------------------------------------------------|

          e|-17b19r17--15h17----------------------------------------------------|
          B|--------------------------------------------------------------------|
          G|-----------------14~~--14p12----12----------------------------------|
          D|-----------------------------14----14p12----------------------------|
          A|-----------------------------------------14p13p12-14p12-10h12p10~~--|
          E|--------------------------------------------------------------------|

          e|-------------------------------------------------------19b21~~~----|
          B|-------------------------------------------------------------------|
          G|-12~~--9p7-5h7p5/4---4-------4------12~~~~~~-7~~~~~~~~-------------|
          D|-------------------5---5-/7----5-----------------------------------|

          Repeat verse

          Repeat Pre-Chorus

          Repeat Chorus several times

          Outro solo:
          e|-15p14p12---------15p14p12---------15p14p12---------15p14p12---------|
          B|---------15p14p12---------15p14p12---------15p14p12---------15p14p12-|


          G|-12~~~-11h12-11~~----12----12-------|
          D|------------------12----12----12/14-|

            [Outro]

               G
          e|---------3----------|
          B|-----------0--------|
          G|-------0-----0------|
          D|-----0---------0----|
          A|---2----------------|
          E|-3------------------|

          Something like that

          End on G



************************************

| x    Dead note
| (n)  Ghost note
| h    Hammer-on
| p    Pull-off
| r    Release
| >    Accented note
| b    Bend
| pb   Pre-bend
| /    Slide up
| \    Slide down
| ~    Vibrato
| s    Slap

************************************
Suggest correction
comments
print report bad tab
3 comments total.
0 reply
dinky 10 Apr 05, 2005 12:00 AM

skid row , kicks ass man no end to shread, death to rap

-1 reply
Punkoff92 10 Feb 26, 2006 03:46 PM

not accurate at all, very off

0 reply
wildncool28 10 Dec 10, 2008 09:22 PM

pagawa nmn po ng tabs ng nosi ba lasi un kay sampaguita po thnx po

guest
You may want to rate the tab now too:
select rating
Wanna post a correction for this tab? Suggest correction