Oops, an error
Loading. Please wait.

Monkey Business Bass Tab

version 1
version 1

Whole song

Interactive

7,538 views 1 this week
2 commentsread comments
1 2 3 4 5
x 3
add to favorites
launch autoscroll
font size
0
reset
guitar tuner
×
Best way to learn
"Monkey Business"
Autoscroll
slow
fast
+/-
esc
set tempo
stop
Difficulty
intermediate
Band: Skid Row 
Song: Monkey Business 
Tabbed By: ClosedRoad 
 
Intro first only guitar then 
 
Fade in with: E->>>>>0--| 
 
G|--------------------------| 
D|-2-----------2------------| 
A|---42342-234---42342-234--| 
E|--------------------------| 
 
G|------------4-------------------| 
D|-2------------42---2-----4~-----| 
A|--42342-234------4--423---------| 
E|----------------------------0~--| 
 
Verse 
G|---------------------------------------| 
D|------2------2h4-2---------2-----------| 
A|-4444---4444-------4--4444---4444-234--| 
E|---------------------------------------| 
 
G|---------------------------------------| 
D|------2------2h4-2--------2------------| 
A|-4444---4444------4--4444---4444-4-----| 
E|-----------------------------------0~--| 
 
G|--------------------------| 
D|-2-----------2------------| 
A|---42342-234---42342------| 
E|--------------------------| 

Verse 
G|---------------------------------------| 
D|------2------2h4-2---------2-----------| 
A|-4444---4444-------4--4444---4444-234--| 
E|---------------------------------------| 
 
G|---------------------------------------| 
D|------2------2h4-2--------2------------| 
A|-4444---4444------4--4444---4444-4-----| 
E|-----------------------------------0~--| 
 
Pre Chorus 
G|------------------------------| 
D|-4~---2~---------2---------2--| 
A|----------2h4-44----2h4-44----| 
E|---0~-------------------------| 
 
G|-------4---------------------------------------------------| 
D|-4~---------------2---------2--4~----2//-654--2~-4~--------| 
A|-----------2h4-44----2h4-44---------------------------444--| 
E|----0~----------------------------0~----------------0------| 

G|--------------------------| 
D|-2-----------2------------| 
A|---42342-234---42342-234--| 
E|--------------------------| 
 
G|------------4-------------------| 
D|-2------------42---2-----4~-----| 
A|--42342-234------4--423---------| 
E|----------------------------0~--| 
 
Verse 
G|---------------------------------------| 
D|------2------2h4-2---------2-----------| 
A|-4444---4444-------4--4444---4444-234--| 
E|---------------------------------------| 
 
G|---------------------------------------| 
D|------2------2h4-2--------2------------| 
A|-4444---4444------4--4444---4444-4-----| 
E|-----------------------------------0~--| 

Pre Chorus 
G|------------------------------| 
D|-4~---2~---------2---------2--| 
A|----------2h4-44----2h4-44----| 
E|---0~-------------------------| 
 
G|-------4---------------------------------------------------| 
D|-4~---------------2---------2--4~----2//-654--2~-4~--------| 
A|-----------2h4-44----2h4-44---------------------------444--| 
E|----0~----------------------------0~----------------0------| 

Chorus x2
G|--------------------------| 
D|-2-----------2------------| 
A|---42342-234---42342-234--| 
E|--------------------------| 
 
G|------------4-------------------| 
D|-2------------42---2-----4~-----| 
A|--42342-234------4--423---------| 
E|----------------------------0~--| 

Bridge 
G|---------------------------| 
D|---------------------------| 
A|-4-4-4------4-4-4----4-----| 
E|-----------------------0~--| 
 
G|------//9--11---11-9h11-9-9h11-7--------| 
D|----4----------------------------8-6-4--| 
A|----------------------------------------| 
E|-0~-------------------------------------| 
 
G|--------------------------------| 
D|------4------4------4------4----| 
A|--------------------------------| 
E|-0--0---0--0---0--0---0--0---0--| 
   H  H P H  H P H  H P H  H P H 
 
G|-------------| 
D|---4---------| 
A|-------------| 4x (try to get the rhytm) 
E|-0---0-0-00--| 
   H P H H HH 
 
During guitar solo play Pre Chorus 
G|------------------------------| 
D|-4~---2~---------2---------2--| 
A|----------2h4-44----2h4-44----| 
E|---0~-------------------------| 
 
G|-------4---------------------------------------------------| 
D|-4~---------------2---------2--4~----2//-654--2~-4~--------| 
A|-----------2h4-44----2h4-44---------------------------444--| 
E|----0~----------------------------0~----------------0------| 

Chorus x4
G|--------------------------| 
D|-2-----------2------------| 
A|---42342-234---42342-234--| 
E|--------------------------| 
 
G|------------4-------------------| 
D|-2------------42---2-----4~-----| 
A|--42342-234------4--423---------| 
E|----------------------------0~--| 

End on: E---0---| 
 
That's it...cool song  
have Fun and please rate 
greetings ClosedRoad 

H: Hammer on
P: Pull Off
Suggest correction
Give kudos to tab author, rate the tab!
1 2 3 4 5
comments
print report bad tab
2 comments total.
0 reply
shredder_666 341 Dec 11, 2006 04:57 AM

not bad at all

0 reply
mrlee192 99 Dec 12, 2006 09:15 AM

bad tab.

guest
You may want to rate the tab now too:
select rating
Wanna post a correction for this tab? Suggest correction