Oops, an error
Loading. Please wait.

Monkey Business Bass Tab

version 3
version 3

Whole song

Interactive

639 views 3 this week
1 commentread comment
1 2 3 4 5
2 more votes to show rating
add to favorites
launch autoscroll
font size
0
reset
guitar tuner
Autoscroll
slow
fast
+/-
esc
set tempo
stop
Help us to improve Ultimate-Guitar.com Take our survey!
×
Difficulty
intermediate
Skid Row- Monkey Business
Tabbed by: Danny D.

00:35 (intro)

G|------------------|    |-4------------------------|---|
D|------------------| X3 |----4-2---2-------2~~-----|---|
A|------------------|    |--------4---4-3-2---------|---|
E|-5-2-0-1-2-0--222-|    |---------------------0----|~--|

Verse

G|--------------------|------------------|---------------------|
D|-----------2h3h2-0--|------------------|-----------2h3h2-0---|
A|--------------------|------------------|---------------------|
E|-2-2-2-2-2----------|-2-2-2-2-2-0-1-2--|-2-2-2-2-2-----------|

G|-------------------|       |------------------|----------------|
D|-------------------|       |------------------|----------------|
A|-------------------|  Then |------------------|----------------|
E|-2-2-2-2-2-2-0-2-0-|       |-5-3-0-1-2-0--222-|-5-2-0-1--------|

Back to the Verse, but don't play the intro music again instead....

Pre-Chorus

G|---------|-------------------------|-----------------------------|
D|---------|---------4-------------4-|-----------------------------|
A|---------|-------------------------|-------------4-3-2~~~0~~~2---|
E|-7-7-0-5-|-0h2-0h2---0h2-0h2-0h2---|-7-7-0-5/12\---------------0-|

G|---------|
D|---------|
A|---------|
E|-2-2-2---|

Play the Intro music, the Verse, and Intro music again.

Bridge

G|-------|-------|---------|--------------11~~~9h11-9h11-9-11-9----9-|
D|-------|-------|---------|--------/11~~~----------------------11---|
A|-------|-------|---------|-----------------------------------------|
E|-2-2-2-|-2-2-2-|-2-0~~~~~|-2~~~~~~---------------------------------|

G|---------|-----------|    |-----------------|    |---------|
D|-11-10-9-|------4----| X4 |------4----------| X3 |---| X16-|
A|---------|-----------|    |-----------------|    |---------|
E|---------|-2-22---22-|    |-2-22---22-2-22--|    |-2-------|

Then play the Pre-chorus and the intro/chrous music as the outro.

I like playing the hammer-ons for the pre-chorus, It sounds like he
might be playing that or just the F#'s. Play whatever you want.
Thanks for reading my Tab. It has a few variations from the other
tabs. Have fun!
Suggest correction
Give kudos to tab author, rate the tab!
1 2 3 4 5
comments
print report bad tab
1 comment total.
0 reply
kellynickels 3,014 Oct 05, 2010 03:54 PM

bad tab just a nother copy of the 1st one

guest
You may want to rate the tab now too:
select rating
Wanna post a correction for this tab? Suggest correction