Oops, an error
Loading. Please wait.

Monkey Business Bass Tab

version 4
version 4

Whole song

Interactive

2,158 views 9 this week
no commentswrite comment
1 2 3 4 5
excellent!
x 4
add to favorites
launch autoscroll
font size
0
reset
guitar tuner
Autoscroll
slow
fast
+/-
esc
set tempo
stop
Help us to improve Ultimate-Guitar.com Take our survey!
×
Author
Difficulty
Tabbers playing skills
intermediate
intermediate ++
                  Monkey Business                                 

                                                                        Skid Row
Bass


  H        E  S S  Q        E  E  E  E  E  E  S S S S  
-------------------------|----------------------------|
-------------------------|----------------------------|
-------------------------|----------------------------|
--------------0-0-11S----|--5--2--0--1--2--0--2-0-2-5-|


  E  E  E  E  E  E  S S S S    E  E  E  E  E  E  S S S S  
----------------------------|----------------------------|
----------------------------|--------------------------4-|
----------------------------|----------------------------|
--L--2--0--1--2--0--2-0-2-5-|--L--2--0--1--2--0--2-0-5---|


  S S S S S S S S Q    Q       E  E  E  E  S S S  S E  E   
----------------------------|-----------------------------|
--L-4-2---------------------|-----------------------------|
--------4-3-2-0---2---------|------------------2S-3-2--0--|
----------------2------0----|--2--2--2--2--2-0------------|


  E  S S E  E  S S E  E  E     E  E  E  S S S S S  S  E  S S  
----------------------------|--------------------------------|
----------------------------|--------------------------------|
----------------------------|-------------------2S-3S-2--0---|
--2--2-2-2--2--2-2-0--1--2--|--2--2--2--2-0-2-0------------2-|


  E  E  E  E  S S S S S E.     E  E  E  E  E  E  S S S S  
----------------------------|----------------------------|
----------------------------|----------------------------|
----------------------------|----------------------------|
--2--2--2--2--2-x-x-x-x-0---|--5--2--0--1--2--0--2-0-2-5-|


  E  E  E  E  E  E  Q       E  E  E  E  S S S  S E  E   
-------------------------|-----------------------------|
-------------------------|-----------------------------|
-------------------------|------------------2S-3-2--0--|
--L--2--0--1--2----------|--2--2--2--2--2-0------------|


  E  E  E  E  E  E  E  E     E  E  E  E  S S S  S E  E   
--------------------------|-----------------------------|
--------------------------|-----------------------------|
--------------------------|------------------2S-3-2--0--|
--2--2--2--2--2--0--1--2--|--2--2--2--2--2-2------------|


  E  E  E  E  S S S S S E.     H        Q    Q     
----------------------------|---------------------|
----------------------------|---------------------|
----------------------------|--2-------------0----|
--2--2--2--2--2-x-x-x-x-0---|-----------0---------|


  S  S S S S S S S S  S S S S S S S    Q    E  E  Q    Q     
------------------------------------|-----------------------|
-----------2----------------2-------|-----------------------|
------------------------------------|--2----2--2-------0----|
--0h-2-2-2---2-2-2-0h-2-2-2---2-2-2-|-------------0---------|


  S  S S S S S S S S  S S S S S S S    Q    E  E  Q     Q      
------------------------------------|-------------------------|
-----------2----------------2-------|-------------------------|
------------------------------------|--2----2--2--------------|
--0h-2-2-2---2-2-2-0h-2-2-2---2-2-2-|-------------0----10\----|


  E  E  S E  S Q    E  E     Q.     S S Q    Q       E  E  S E  S E  E  Q     
--------------------------|-----------------------|--------------------------|
--------------------------|-----------------------|--------------------------|
-----4----3----2----2--2--|--0------0-1-2---------|--------------------------|
--------------------------|------------------0----|-----2----2----2----------|


  E  E  E  E  E  E  S S S S    E  E  E  E  E  E  S S S S  
----------------------------|----------------------------|
----------------------------|----------------------------|
----------------------------|----------------------------|
--5--2--0--1--2--0--2-0-2-5-|--L--2--0--1--2--0--2-0-2-5-|


  E  E  E  E  E  E  S S S S    S S S S S S S S Q    Q     
----------------------------|----------------------------|
--------------------------4-|--L-4-2---------------------|
----------------------------|--------4-3-2-0---2---------|
--L--2--0--1--2--0--2-0-5---|----------------2------0----|


  E  E  E  E  S S S  S E  E     E  E  E  E  E  E  E  E   
-----------------------------|--------------------------|
-----------------------------|--------------------------|
------------------2S-3-2--0--|--------------------------|
--2--2--2--2--2-0------------|--2--2--2--2--2--0--1--2--|


  E  E  E  E  S S S  S E  E     E  E  E  E  S S S S S E.   
-----------------------------|----------------------------|
-----------------------------|----------------------------|
------------------2S-3-2--0--|----------------------------|
--2--2--2--2--2-2------------|--2--2--2--2--2-x-x-x-x-0---|


  H        Q    Q       S  S S S S S S S S  S S S S S S S  
---------------------|------------------------------------|
---------------------|-----------2----------------2-------|
--2-------------0----|------------------------------------|
-----------0---------|--0h-2-2-2---2-2-2-0h-2-2-2---2-2-2-|


  Q    E  E  Q    Q       S  S S S S S S S S  S S S S S S S  
-----------------------|------------------------------------|
-----------------------|-----------2----------------2-------|
--2----2--2-------0----|------------------------------------|
-------------0---------|--0h-2-2-2---2-2-2-0h-2-2-2---2-2-2-|


  Q    E  E  Q     Q        E  E  S E  S Q    E  E     Q.     S S Q    Q     
-------------------------|--------------------------|-----------------------|
-------------------------|--------------------------|-----------------------|
--2----2--2--------------|-----4----3----2----2--2--|--0------0-1-2---------|
-------------0----10\----|--------------------------|------------------0----|


  E  E  S E  S E  E  Q       E  E  E  E  E  E  S S S S  
--------------------------|----------------------------|
--------------------------|----------------------------|
--------------------------|----------------------------|
-----2----2----2----------|--5--2--0--1--2--0--2-0-2-5-|


  E  E  E  E  E  E  S S S S    E  E  E  E  E  E  S S S S  
----------------------------|----------------------------|
----------------------------|--------------------------4-|
----------------------------|----------------------------|
--L--2--0--1--2--0--2-0-2-5-|--L--2--0--1--2--0--2-0-5---|


  S S S S S S S S Q    Q       E  E  E  E  E  E  S S S S  
----------------------------|----------------------------|
--L-4-2---------------------|----------------------------|
--------4-3-2-0---2---------|----------------------------|
----------------2------0----|--5--2--0--1--2--0--2-0-2-5-|


  E  E  E  E  E  E  S S S S    E  E  E  E  E  E  S S S S  
----------------------------|----------------------------|
----------------------------|--------------------------4-|
----------------------------|----------------------------|
--L--2--0--1--2--0--2-0-2-5-|--L--2--0--1--2--0--2-0-5---|


  S S S S S S S S Q    Q       E  E  S E  S E  E  Q     
----------------------------|--------------------------|
--L-4-2---------------------|--------------------------|
--------4-3-2-0---2---------|--------------------------|
----------------2------0----|-----2----2----2----------|


  E  E  S E  S E  E  Q       S E.  H.              Q.     E  Q    E.    S  
--------------------------|---------------------|-------------------------|
--------------------------|---------------------|-------------------------|
--------------------------|---------------------|-------------------------|
-----2----2----2----------|--2-0---L------------|--2------L--L----5S---14-|


   H.           E   E      W                 
-----------------------|--------------------|
-----------------------|--16----------------|
-------------------16--|--------------------|
--14-------------------|--------------------|


      E.      S E   E  S  S  S  S  S  S  E      S  S S S E  S S H         
---------------------------------------------|---------------------------|
--14g16---14g16-L--14--L-16-14----14---------|-----------4---------------|
-------------------------------16----16-14\--|---------------------------|
---------------------------------------------|--0h-2-2-2----0-2----------|


  S  S S S E  S S H           S  S S S E  S S H         
---------------------------|---------------------------|
-----------4---------------|-----------4---------------|
---------------------------|---------------------------|
--0h-2-2-2----0-2----------|--0h-2-2-2----0-2----------|


  S  S S S E  S S H           S  S S S E  S S S S S S Q     
---------------------------|-------------------------------|
-----------4---------------|-----------4-------------------|
---------------------------|-------------------------------|
--0h-2-2-2----0-2----------|--0h-2-2-2----0-2---0---1------|


  S  S S S E  S S S S S S Q       S  S S S E  S S S S S S S S S S  
-------------------------------|----------------------------------|
-----------4-------------------|-----------4----------------------|
-------------------------------|----------------------------------|
--0h-2-2-2----0-2---0---1------|--0h-2-2-2----0-2---0---1---0-1-0-|


  S S S S S S S S S S S S S S S S    Q    E  E  Q    Q     
----------------------------------|-----------------------|
----------------------------------|-----------------------|
----------4-4-4-4-4-4-4-4-4-4-4-4-|--2----2--2-------0----|
--2-2-2-2-2-2-2-2-2-2-2-2-2-2-2-2-|-------------0---------|


  E  S S S S S S E  S S S S S S    Q    E  S S Q    E  S S  
--------------------------------|--------------------------|
---------2--------------2-------|--------------------------|
--------------------------------|--2----2--2-2------0--0-0-|
--2--2-2---2---0-2--2-2---2---0-|--------------0-----------|


  E  S S S S S S E  S S S S S S    Q    E  E  Q     Q      
--------------------------------|-------------------------|
---------2--------------2-------|-------------------------|
--------------------------------|--2----2--2--------------|
--2--2-2---2---0-2--2-2---2---0-|-------------0----14\----|


  E  E  S E  S Q.     E     Q.     S S Q    Q       E  E  S E  S E  E  Q     
-------------------------|-----------------------|--------------------------|
-------------------------|-----------------------|--------------------------|
-----4----3----2------2--|--0------0-1-2---------|--------------------------|
-------------------------|------------------0----|-----2----2----2----------|


  E  E  E  E  E  E  S S S S    E  E  E  E  E  E  S S S S  
----------------------------|----------------------------|
----------------------------|----------------------------|
----------------------------|----------------------------|
--5--2--0--1--2--0--2-0-2-5-|--L--2--0--1--2--0--2-0-2-5-|


  E  E  E  E  E  E  S S S S    S S S S S S S S Q    Q     
----------------------------|----------------------------|
--------------------------4-|--L-4-2---------------------|
----------------------------|--------4-3-2-0---2---------|
--L--2--0--1--2--0--2-0-5---|----------------2------0----|


  E  E  E  E  E  E  S S S S    E  E  E  E  E  E  S S S S  
----------------------------|----------------------------|
----------------------------|----------------------------|
----------------------------|----------------------------|
--5--2--0--1--2--0--2-0-2-5-|--L--2--0--1--2--0--2-0-2-5-|


  E  E  E  E  E  E  S S S S    S S S S S S S S Q    Q     
----------------------------|----------------------------|
--------------------------4-|--L-4-2---------------------|
----------------------------|--------4-3-2-0---2---------|
--L--2--0--1--2--0--2-0-5---|----------------2------0----|


  E  E  E  E  E  E  S S S S    E  E  E  E  E  E  S S S S  
----------------------------|----------------------------|
----------------------------|----------------------------|
----------------------------|----------------------------|
--5--2--0--1--2--0--2-0-2-5-|--L--2--0--1--2--0--2-0-2-5-|


  E  E  E  E  E  E  S S S S    S S S S S S S S Q    Q     
----------------------------|----------------------------|
--------------------------4-|--L-4-2---------------------|
----------------------------|--------4-3-2-0---2---------|
--L--2--0--1--2--0--2-0-5---|----------------2------0----|


  E  E  E  E  E  E  S S S S    E  E  E  E  E  E  S S S S  
----------------------------|----------------------------|
----------------------------|----------------------------|
----------------------------|----------------------------|
--5--2--0--1--2--0--2-0-2-5-|--L--2--0--1--2--0--2-0-2-5-|


  E  E  E  E  E  E  S S S S    S S S S S S S S Q    Q     
----------------------------|----------------------------|
--------------------------4-|--L-4-2---------------------|
----------------------------|--------4-3-2-0---2---------|
--L--2--0--1--2--0--2-0-5---|----------------2------0----|


  E  E  E  E  E  E  S S S S    E  E  E  E  E  E  S S S S  
----------------------------|----------------------------|
----------------------------|----------------------------|
----------------------------|----------------------------|
--5--2--0--1--2--0--2-0-2-5-|--L--2--0--1--2--0--2-0-2-5-|


  E  E  E  E  E  E  S S S S    S S S S S S S S Q    Q     
----------------------------|----------------------------|
--------------------------4-|--L-4-2---------------------|
----------------------------|--------4-3-2-0---2---------|
--L--2--0--1--2--0--2-0-5---|----------------2------0----|


  E  E  Q    H          
----------------------||
----------------------||
----------------------||
--2--0----------------||




Duration Legend
---------------
W - whole
H - half
Q - quarter
E - 8th
S - 16th
T - 32nd
X - 64th
. - note dotted
|-n-|  - n-tuplets


Tablature Legend
----------------
L - tied note
x - dead note
g - grace note
(n) - ghost note
> - accentuded note
NH - natural harmonic
AH - artificial harmonic
TH - tapped harmonic
SH - semi harmonic
PH - pitch harmonic
h - hammer on
p - pull off
b - bend
br - bendRelease
pb - preBend
pbr - preBendRelease
brb - bendReleaseBend
\n/ - tremolo bar dip
\n - tremolo bar dive
-/n - tremolo bar Release up
/n\ - tremolo bar inverted dip
/n - tremolo bar return
-\n - tremolo bar Release down
S - shift slide
s - legato slide
/ -  slide into from below or out of upwards
\ -  slide into from above or out of downwards
~ - vibrato
W - wide vibrato
tr - trill
TP - tremolo picking
T - tapping
S - slap
P - pop
< - fade in
^ - brush up
v - brush down
Suggest correction
comments
print report bad tab
guest
You may want to rate the tab now too:
select rating
Please do not post tabs as comments. Select "correction" instead!