Oops, an error
Loading. Please wait.

Monkey Business Bass

version 5
version 5

Whole song

Interactive

1,102 views 1 this week
no commentswrite comment
1 2 3 4 5
2 more votes to show rating
add to favorites
launch autoscroll
font size
0
reset
guitar tuner
backing track
0:00
0:00
×
Best way to learn
"Monkey Business"
Autoscroll
slow
fast
+/-
esc
set tempo
stop
SKID ROW
MONKEY BIZNESS
SLAVE TO THE GRIND
TABBED BY razzlesnake@yahoo.com 

RIFF:1                                   
G|------------------------------------|    
D|------------------------------------|    
A|------------------------------------|    
E|---5-2-0-1-2-0-2-2-5-2-0-1-2-0-2-2--|   

RIFF:2
G|--------------------------------------|
D|----------2-3-2-0---------------------|
A|--------------------------------------|
E|----2-2-2-----------2-2-2-2-2-2-0-1-2-|

RIFF:3
G|----------------------------|
D|---------4-----------4------|
A|----------------------------|
E|--2-2-2------2-2-2----------|

Suggest correction
Give kudos to tab author, rate the tab!
1 2 3 4 5
comments
print report bad tab
guest
You may want to rate the tab now too:
select rating
Wanna post a correction for this tab? Suggest correction