Oops, an error
Loading. Please wait.

My Enemy Tab

version 1
version 1

Whole song

Interactive

2,536 views 1 this week
no commentswrite comment
1 2 3 4 5
please rate
add to favorites
launch autoscroll
font size
0
reset
how to read this tab
guitar tuner
Tab Pro tools
  • play this tab
  • loop segment
  • change instrument
  • show fretboard
  • metronome
×
Best way to learn
"My Enemy"
Autoscroll
slow
fast
+/-
esc
set tempo
stop
#----------------------------------PLEASE NOTE---------------------------------#
#This file is the author's own work and represents their interpretation of the #
#song. You may only use this file for private study, scholarship, or research. #
#------------------------------------------------------------------------------#
#

My Enemy - SKID ROW (Subhuman Race)

Dropped-D tuning


INTRO:
e |----------------------------|-----------------------------------|
B |----------------------------|-----------------------------------|
G |----------------------------|-----------------------------------|
D |-0---------3----------------|---------------3-------------------|
A |-0--5p0--3------------3-----|------5-0--3-5---5-----------------|
E |-0------------0-3-5-6---6-5-|-3p0----------------0-3-5-5b6r5----|

e |----------------------------|-----------------------------------|
B |----------------------------|-----------------------------------|
G |----------------------------|-----------------------------------|
D |-0---------3----------------|---------------3-------------------|
A |-0--5p0--3------------3-----|------5-0--3-5---5--------0--------|
E |-0------------0-3-5-6---6-5-|-3p0----------------0-3-5---6-5-3--|


e |----------------------------|-----------------------------------|
B |----------------------------|-----------------------------------|
G |----------------------------|-----------------------------------|
D |-0---------3----------------|---------------3-------------------|
A |-0--5p0--3------------3-----|------5-0--3-5---5-----------------|
E |-0------------0-3-5-6---6-5-|-3p0----------------0-3-5-5b6r5----|

e |----------------------------|-----------------------------------|
B |----------------------------|-----------------------------------|
G |----------------------------|-----------------------------------|
D |-0---------3----------------|---------------3----0-3-5--7-6-5-3-|
A |-0--5p0--3------------3-----|------5-0--3-5---5--0-3-5--7-6-5-3-|
E |-0------------0-3-5-6---6-5-|-3p0----------------0-3-5--7-6-5-3-|


e |------------------------------------|-----------------------------------|
B |------------------------------------|-----------------------------------|
G |------------------------------------|--------------3-3--------------7-5-|
D |-0-0--0-0-0-0-3-3--0-0--0-0-0-0-5-5-|-0-0--0-0-0-0-3-3-0-0--0-0-0-0-7-5-|
A |-0-0--0-0-0-0-3-3--0-0--0-0-0-0-5-5-|-0-0--0-0-0-0-1-1-0-0--0-0-0-0-5-3-|
E |-0-0--0-0-0-0-3-3--0-0--0-0-0-0-5-5-|-0-0--0-0-0-0-----0-0--0-0-0-0-----|


VERSE1:
e |------------------------------------|-----------------------------------|
B |------------------------------------|-----------------------------------|
G |------------------------------------|--------------3-3--------------7-5-|
D |-0-0--0-0-0-0-3-3--0-0--0-0-0-0-5-5-|-0-0--0-0-0-0-3-3-0-0--0-0-0-0-7-5-|
A |-0-0--0-0-0-0-3-3--0-0--0-0-0-0-5-5-|-0-0--0-0-0-0-1-1-0-0--0-0-0-0-5-3-|
E |-0-0--0-0-0-0-3-3--0-0--0-0-0-0-5-5-|-0-0--0-0-0-0-----0-0--0-0-0-0-----|

PRE1:
(with riff a)
e |-----------------------------|--------------------------|
B |-----------------------------|--------------------------|
G |-----------------------------|--------------------------|
D |--3*-------------------------|----------------3*--------|
A |--3*-------------------------|----------------3*--------|
E |--3*-------------------------|--0-3-0-0-3-3-0-3*--------|
			(* = let note ring)

riff a:
e |-----------------------------|--------------------------|
B |-----------------------------|--------------------------|
G |----------5~----------5~-----|---------5--7b8r7--5------|
D |-3-3---3--6~---3---3--6~-----|--3---3--6--8b9r8--6--3---|
A |-----3-----------3-----------|----3---------------------|
E |-----------------------------|--------------------------|

CHORUS1:
e |----------------------------|-----------------------------------|
B |----------------------------|-----------------------------------|
G |----------------------------|-----------------------------------|
D |-0---------3----------------|---------------3-------------------|
A |-0--5p0--3------------3-----|------5-0--3-5---5-----------------|
E |-0------------0-3-5-6---6-5-|-3p0----------------0-3-5-5b6r5----|

e |----------------------------|-----------------------------------|
B |----------------------------|-----------------------------------|
G |----------------------------|-----------------------------------|
D |-0---------3----------------|---------------3-------------------|
A |-0--5p0--3------------3-----|------5-0--3-5---5--------0--------|
E |-0------------0-3-5-6---6-5-|-3p0----------------0-3-5---6-5-3--|


e |-----------------------|
B |-----------------------|
G |-----------------------|
D |-0-0-0--0-0-0----------|
A |-0-0-0--0-0-0--(pause)-|
E |-0-0-0--0-0-0----------|

VERSE2:
e |------------------------------------|-----------------------------------|
B |------------------------------------|-----------------------------------|
G |------------------------------------|--------------3-3--------------7-5-|
D |-0-0--0-0-0-0-3-3--0-0--0-0-0-0-5-5-|-0-0--0-0-0-0-3-3-0-0--0-0-0-0-7-5-|
A |-0-0--0-0-0-0-3-3--0-0--0-0-0-0-5-5-|-0-0--0-0-0-0-1-1-0-0--0-0-0-0-5-3-|
E |-0-0--0-0-0-0-3-3--0-0--0-0-0-0-5-5-|-0-0--0-0-0-0-----0-0--0-0-0-0-----|

(with riff b)
e |------------------------------------|-----------------------------------|
B |------------------------------------|-----------------------------------|
G |------------------------------------|--------------3-3--------------7-5-|
D |-0-0--0-0-0-0-3-3--0-0--0-0-0-0-5-5-|-0-0--0-0-0-0-3-3-0-0--0-0-0-0-7-5-|
A |-0-0--0-0-0-0-3-3--0-0--0-0-0-0-5-5-|-0-0--0-0-0-0-1-1-0-0--0-0-0-0-5-3-|
E |-0-0--0-0-0-0-3-3--0-0--0-0-0-0-5-5-|-0-0--0-0-0-0-----0-0--0-0-0-0-----|


riff b:
e |-----------------------------------|-----------------------------------|
B |-----------------------------------|-----------------------------------|
G |-----------------------------------|-----------------------------------|
D |-0-0-0-0-0-0-0-0-0-0-0-0-0-0-0-0---|-0-0-0-0-0-0-0-0-0-0-0-0-0-0-0-0---|
A |-0-0-0-0-0-0-0-0-0-0-0-0-0-0-0-0---|-0-0-0-0-0-0-0-0-0-0-0-0-0-0-0-0---|
E |-0-0-0-0-0-0-0-0-0-0-0-0-0-0-0-0---|-0-0-0-0-0-0-0-0-0-0-0-0-0-0-0-0---|

e |-----------------------------------|-----------------------------------|
B |-----------------------------------|-----------------------------------|
G |-----------------------------------|-----------------------------------|
D |-0-0-0-0-0-0-0-0-0-0-0-0-0-0-0-0---|-0-0-0-0-0-0-0-0-0-0-0-0-0-0-0-0---|
A |-0-0-0-0-0-0-0-0-0-0-0-0-0-0-0-0---|-0-0-0-0-0-0-0-0-0-0-0-0-0-0-0-0---|
E |-0-0-0-0-0-0-0-0-0-0-0-0-0-0-0-0---|-0-0-0-0-0-0-0-0-0-0-0-0-0-0-0-0---|


PRE2:
(with riff a)
e |-----------------------------|--------------------------|
B |-----------------------------|--------------------------|
G |-----------------------------|--------------------------|
D |--3*-------------------------|----------------3*--------|
A |--3*-------------------------|----------------3*--------|
E |--3*-------------------------|--0-3-0-0-3-3-0-3*--------|
			(* = let note ring)

riff a:
e |-----------------------------|--------------------------|
B |-----------------------------|--------------------------|
G |----------5~----------5~-----|---------5--7b8r7--5------|
D |-3-3---3--6~---3---3--6~-----|--3---3--6--8b9r8--6--3---|
A |-----3-----------3-----------|----3---------------------|
E |-----------------------------|--------------------------|


CHORUS2:
e |----------------------------|-----------------------------------|
B |----------------------------|-----------------------------------|
G |----------------------------|-----------------------------------|
D |-0---------3----------------|---------------3-------------------|
A |-0--5p0--3------------3-----|------5-0--3-5---5-----------------|
E |-0------------0-3-5-6---6-5-|-3p0----------------0-3-5-5b6r5----|

e |----------------------------|-----------------------------------|
B |----------------------------|-----------------------------------|
G |----------------------------|-----------------------------------|
D |-0---------3----------------|---------------3-------------------|
A |-0--5p0--3------------3-----|------5-0--3-5---5--------0--------|
E |-0------------0-3-5-6---6-5-|-3p0----------------0-3-5---6-5-3--|

(with riff c)
e |----------------------------|-----------------------------------|
B |----------------------------|-----------------------------------|
G |----------------------------|-----------------------------------|
D |-0---------3----------------|---------------3-------------------|
A |-0--5p0--3------------3-----|------5-0--3-5---5-----------------|
E |-0------------0-3-5-6---6-5-|-3p0----------------0-3-5-5b6r5----|

e |----------------------------|-----------------------------------|
B |----------------------------|-----------------------------------|
G |----------------------------|-----------------------------------|
D |-0---------3----------------|---------------3-------------------|
A |-0--5p0--3------------3-----|------5-0--3-5---5--------0--------|
E |-0------------0-3-5-6---6-5-|-3p0----------------0-3-5---6-5-3--|

riff c:
e |----------------------------|-----------------------------------|
B |----------------------------|-----------------------------------|
G |------------8-----------8---|-----------8-----------------------|
D |----7-5-7-5-----7-5-7-5-----|--7-5-7-5-----7-5-7-5-7------------|
A |--0-------------------------|-----------------------------------|
E |----------------------------|-----------------------------------|


e |-----------------------|
B |-----------------------|
G |-----------------------|
D |-0-0-0--0-0-0----------|
A |-0-0-0--0-0-0--(pause)-|
E |-0-0-0--0-0-0----------|


SOLO:
e |-------------------------------|--------------------------------|
B |-------------------------------|--------------------------------|
G |-------------------------------|--------------------------------|
D |----------------------0-1-2----|----------------------0-1-2-----|
A |----------------0-1-2----------|----------------0-1-2-----------|
E |--0h2-2-2--5-5-----------------|--0h2-2-2--5-5------------------|

e |-------------------------------|--------------------------------|
B |-------------------------------|--------------------------------|
G |-------------------------------|--------------------------------|
D |----------------------0-1-2----|----------------------0-1-2-----|
A |----------------0-1-2----------|----------------0-1-2-----------|
E |--0h2-2-2--5-5-----------------|--0h2-2-2--5-5------------------|

e |-------------------------------|--------------------------------|
B |-------------------------------|--------------------------------|
G |-------------------------------|--------------------------------|
D |----------------------0-1-2----|----------------------0-1-2-----|
A |----------------0-1-2----------|----------------0-1-2-----------|
E |--0h2-2-2--5-5-----------------|--0h2-2-2--5-5------------------|

e |-------------------------------|--------------------------------|
B |-------------------------------|--------------------------------|
G |-------------------------------|--------------------------------|
D |----------------------0-1-2----|----------------------0-1-2-----|
A |----------------0-1-2----------|----------------0-1-2-----------|
E |--0h2-2-2--5-5-----------------|--0h2-2-2--5-5------------------|


END SOLO RIFF:
e |-------------------------------|--------------------------------|
B |-------------------------------|--------------------------------|
G |-------------------------------|--------------------------------|
D |--0h2-2-2--5-5--------0-1-2----|--0h2-2-2--5-5--------0-1-2-----|
A |--0h2-2-2--5-5--0-1-2----------|--0h2-2-2--5-5--0-1-2-----------|
E |--0h2-2-2--5-5-----------------|--0h2-2-2--5-5------------------|

e |------------------------------|-------------------------------|
B |------------------------------|-------------------------------|
G |------------------------------|-------------------------------|
D |---------------------0-1-2----|---------------------0-1-2-----|
A |---------------0-1-2----------|---------------0-1-2-----------|
E |--0h2-2-2--5-5----------------|--0h2-2-2--5-5-----------------|


PRE3:
(with riff a)
e |-----------------------------|--------------------------|
B |-----------------------------|--------------------------|
G |-----------------------------|--------------------------|
D |--3*-------------------------|----------------3*--------|
A |--3*-------------------------|----------------3*--------|
E |--3*-------------------------|--0-3-0-0-3-3-0-3*--------|
			(* = let note ring)

riff a:
e |-----------------------------|--------------------------|
B |-----------------------------|--------------------------|
G |----------5~----------5~-----|---------5--7b8r7--5------|
D |-3-3---3--6~---3---3--6~-----|--3---3--6--8b9r8--6--3---|
A |-----3-----------3-----------|----3---------------------|
E |-----------------------------|--------------------------|


CHORUS3:
e |----------------------------|-----------------------------------|
B |----------------------------|-----------------------------------|
G |----------------------------|-----------------------------------|
D |-0---------3----------------|---------------3-------------------|
A |-0--5p0--3------------3-----|------5-0--3-5---5-----------------|
E |-0------------0-3-5-6---6-5-|-3p0----------------0-3-5-5b6r5----|

e |----------------------------|-----------------------------------|
B |----------------------------|-----------------------------------|
G |----------------------------|-----------------------------------|
D |-0---------3----------------|---------------3-------------------|
A |-0--5p0--3------------3-----|------5-0--3-5---5--------0--------|
E |-0------------0-3-5-6---6-5-|-3p0----------------0-3-5---6-5-3--|

(with riff c)
e |----------------------------|-----------------------------------|
B |----------------------------|-----------------------------------|
G |----------------------------|-----------------------------------|
D |-0---------3----------------|---------------3-------------------|
A |-0--5p0--3------------3-----|------5-0--3-5---5-----------------|
E |-0------------0-3-5-6---6-5-|-3p0----------------0-3-5-5b6r5----|

e |----------------------------|-----------------------------------|
B |----------------------------|-----------------------------------|
G |----------------------------|-----------------------------------|
D |-0---------3----------------|---------------3-------------------|
A |-0--5p0--3------------3-----|------5-0--3-5---5--------0--------|
E |-0------------0-3-5-6---6-5-|-3p0----------------0-3-5---6-5-3--|

riff c:
riff c:
e |----------------------------|-----------------------------------|
B |----------------------------|-----------------------------------|
G |------------8-----------8---|-----------8-----------------------|
D |----7-5-7-5-----7-5-7-5-----|--7-5-7-5-----7-5-7-5-7------------|
A |--0-------------------------|-----------------------------------|
E |----------------------------|-----------------------------------|


OUTRO:
e |-------------------------|
B |-------------------------|
G |-------------------------|
D |--0-3--3-5--5-6--5-3--0--|
A |--0-3--3-5--5-6--5-3--0--|
E |--0-3--3-5--5-6--5-3--0--|

*********************************************************************


Lyrics:

Play the fence, one way your gonna fall
Sometimes I don't know who you are at all
Your opinion is something that you've got inside
But I see the loyalty has up and died

Your skeletons
My skeletons
Life is only getting shorter

You can be my enemy and I don't care
Keep throwing stones at yourself

Stories run in circles that have no end
I hit on luck, then you bum me out again
There's a way that you keep the truth in check
Scratch the surface and treat it like a broken neck

Keep the peace when face to face with the scene
Got a hunch that ain't what you really mean
Weather's fair, does that change where you stand?
My back is turned and the knife is in your hand

Your genocide
My genocide
Life is only getting shorter

You can be my enemy and I don't care
Keep throwing stones at yourself
You can be my enemy and I don't care
Try too hard and I can tell

*********************************************************************

Simon V.
E-mail: j5816632@redgum.bendigo.latrobe.edu.au

*********************************************************************
comments
We did not receive enough feedback on this tab! Please rate:
print report bad tab
1 2 3 4 5
I want to post or [tab]
guest
You may want to rate the tab now too:
select rating
Please do not post tabs as comments. Select "correction" instead!