Oops, an error
Loading. Please wait.

Psycho Love bass

version 1
version 1

Whole song

Interactive

4,113 views 9 this week
no commentswrite comment
1 2 3 4 5
x 3
add to favorites
×
Save as Personal and add changes to this tab that will be seen only by you. Learn more ›
×
You can save this tab as Personal to edit and correct it or add notes. All changes will be seen only by you. Learn more »
launch autoscroll
font size
0
reset
guitar tuner
edit
Autoscroll
slow
fast
+/-
esc
set tempo
stop
Author
Difficulty
Artist:Skid Row
Song:Psycho Love
Album:Slave to the Grind
Bassist:Rachel Bolan
Tabber:Dev Fuld

This is an awesome tune, and it's got an awesome bass part. Rachel Bolan tends to play 
with a pick, and if you listen to the bass it has a very raw and hollow sound. He either plays 
really close to the bridge, or he uses an effect. I do both, sounds cool. 

Key:
x = times a number
* = let it ring

Intro/Chorus
G:-----------------|----------------|
D:-----------------|----------------|
A:-----------------|------------2323|
E:222-5-5-8-8-7-5-7|222-5-1-000-----|

Verse
                                x2                                      x2
G:---------------|---------------|-----------------------|---------------|-----------|
D:---------------|---------------|-----------------------|---------------|-----------|
A:2-2-2-2-2-2-2-2|2-2-2-2-2-2-2-0|4-4-4-4-4-4-4-4---0-1-2|4-4-4-4-4-4-4-2|3-3-3-3-3-3|
E:---------------|---------------|----------------4------|---------------|-----------|

Slow Part
G:-----------------------|
D:-----------------------|
A:2*-0*----------------0*|
E:------3*-2*-0*-3*-2*---|

End of slow part
G:---------|
D:---------|
A:---------|
E:0x16-2x16|

Solo/last verse
G:---------------|---------------|
D:---------------|---------------|
A:------------2-2|---------------|
E:4-4-4-2-444----|4-4-4-2-444-2-2|

End part (You'll hear this change)
G:-----------------|---------------------|------------------------|---------|
D:-----------------|---------------------|------------------------|---------|
A:-----------------|---------------------|------------------------|---------|
E:222-5-5-8-8-7-5-7|555-8-8-11-11-10-8-10|777-10-10-13-13-12-10-12|222-4-2-2|

That's it. It's a pretty quick tune, but that makes it all the more fun. Listen for that 
ending part, its a cool part to play. You can figure out the order yourself. Any questions 
or comments, e-mail me at rocklvson@yahoo.com


            
            
Suggest correction
Creating personal tab
Creating personal tab
You can edit any tab online and save it as your Personal.

You can edit, replace or remove any tab part or add personal notes – all changes will be seen only by you.

Personal tabs can be accessed anytime from any device, even offline.
Learn more »
Give kudos to tab author, rate the tab!
1 2 3 4 5
comments
print report bad tab
guest
You may want to rate the tab now too:
select rating
Wanna post a correction for this tab? Suggest correction