Oops, an error
Loading. Please wait.

Quicksand Jesus bass

version 1
version 1

Whole song

Interactive

3,542 views 6 this week
1 commentread comment
1 2 3 4 5
2 more votes to show rating
add to favorites
×
Save as Personal and add changes to this tab that will be seen only by you. Learn more ›
×
You can save this tab as Personal to edit and correct it or add notes. All changes will be seen only by you. Learn more »
launch autoscroll
font size
0
reset
guitar tuner
edit
Autoscroll
slow
fast
+/-
esc
set tempo
stop
Author
Difficulty
Artist:Skid Row
Song:Quicksand Jesus
Album:Slave to the Grind
Bassist:Rachel Bolan
Tabber:Dev Fuld

This is an awesome song. This tab should be correct if not close to it.

Key:
* = let it ring
/ = slide up

Intro
G:--|-------------------------------|-----------------|-----------------------------|
D:--|-------------------------------|--------4/5-4/5--|-----------------------------|
A:--|-------------------------------|3*-2-3*---------7|-----------------------------|
E:0*|0-0-2-3-0-0-3-2-0-0-2-3-0-0-3-2|-----------------|0-2-3-0-0-3-2-0-0-2-3-0-0-3-2|

verse 1 is the same as intro

verse 2 (starts at 0:37)
G:-------------------------------|-----|
D:-------------------------------|-----|
A:-------------------------------|-----|
E:0-0-2-3-0-0-3-2-0-0-2-3-0-0-3-2|Intro|

"Are we saved by the words..."
G:-------------------------------------|-------------------|
D:-------------------------------------|---------4/5-4/5---|
A:5*-3*--------------------------------|5*-3*-2*---------7*|
E:------0-0-2-3-0-0-3-2-0-0-2-3-0-0-3-2|-------------------|

"What do we need..."
G:------------|-----------|--------------------|
D:------------|-----------|--------------------|
A:------------|------3*-5*|----------2*-5*-----|
E:0*-3*-5*--3*|0*-3*------|0*-3*-5*--------3-0*|

Solo
G:-------------|-------------|-------------|-------------|
D:------2--2---|------2--2---|------2--2---|------2--2---|
A:5*-3*--------|5*-3*--------|5*-3*--------|5*-3*------2*|
E:-----------0*|-----------0*|-----------0*|-------------|

"Quicksand jesus..."
G:--------|--------|--------|--------|--------------------|---------|
D:--------|--------|--------|--------|--------------------|---------|
A:3*-5*-7*|3*-5*-7*|3*-5*-7*|3*-5*-7*|3*-5*-3*-5*-3*-5*-7*|3*-5*-7*-|
E:--------|--------|--------|--------|--------------------|(til end)|

That's it. It's pretty easy once you get the hang of it. I'm not sure if my timing's are 
correct but im pretty sure all the notes are. You can figure out the order yourself. Any 
questions or comments, e-mail me at rocklvson@yahoo.com


            
            
Suggest correction
Creating personal tab
Creating personal tab
You can edit any tab online and save it as your Personal.

You can edit, replace or remove any tab part or add personal notes – all changes will be seen only by you.

Personal tabs can be accessed anytime from any device, even offline.
Learn more »
Give kudos to tab author, rate the tab!
1 2 3 4 5
comments
print report bad tab
1 comment total.
0 reply
blasphereion 10 Mar 29, 2012 01:28 PM

This tab is shit! been floating around the net for years. There's a lot more going on with the bass than this pathetic attempt.

guest
You may want to rate the tab now too:
select rating
Wanna post a correction for this tab? Suggest correction