Oops, an error
Loading. Please wait.

Riot Act bass

version 1
version 1

Whole song

Interactive

1,612 views 1 this week
1 commentread comment
1 2 3 4 5
1 last vote to show rating
add to favorites
×
Save as Personal and add changes to this tab that will be seen only by you. Learn more ›
×
You can save this tab as Personal to edit and correct it or add notes. All changes will be seen only by you. Learn more »
launch autoscroll
font size
0
reset
guitar tuner
edit
Autoscroll
slow
fast
+/-
esc
set tempo
stop
Author
Difficulty
Artist:Skid Row
Song:Riot Act
Album:Slave to the Grind
Bassist:Rachel Bolan
Tabber:Dev Fuld

This is an awesome song off of Skid Row's best album...Slave to the Grind. And remember, 
"you can't be king of the world, if you're a slave to the grind!"

Key:
x = times a number

Intro
G:---|--------|--------|--------|--------|
D:---|--------|--------|--------|--------|
A:--5|7x12---5|7x12---5|7x12---5|7x12---5|
E:5--|-----5--|-----5--|-----5--|-----5--|

Verse
G:--------|--------|--------|--------|
D:--------|--------|--------|--------|
A:7x12---5|7x12---5|7x12---5|7x12---5|
E:-----5--|-----5--|-----5--|-----5--|

Pre-Chorus
G:------------|
D:------------|
A:2x16--------|
E:-----3x8-5x8|

Chorus
G:-----------|-----------|-----------|---|---|
D:-----------|-----------|-----------|---|---|
A:-----------|-----------|-----------|2x8|2-2|
E:0x4-3x4-5x8|0x4-3x4-5x8|0x4-3x4-5x8|---|---|

Intro

Verse

Pre-Chorus

Chorus

Pre-Solo
G:---|--------|--------|
D:---|--------|--------|
A:--5|7x12---5|7x12---5|
E:5--|-----5--|-----5--|

Solo
G:---------|
D:---------|
A:2x64-----|
E:-----3x64|

Verse

Pre-Chorus

Chorus

Chorus

End
G:---|-------------|-------------|-------------|-------------|---|
D:---|-------------|-------------|-------------|-------------|---|
A:--5|-------------|-------------|-------------|-------------|---|
E:5--|0-0-0-1-2-3x4|0-0-0-1-2-3x4|0-0-0-1-2-3x4|0-0-0-1-2-3x4|0-0|

That's it. This is such a kickass song! So play it with tude man! You can replace the 7's 
on the A-string to open E's if you'd like, it sounds fine also. The song is already in order 
so I made your life easier, for what reason I dont know. Any questions or comments, e-mail 
me at rocklvson@yahoo.com


            
            
Suggest correction
Creating personal tab
Creating personal tab
You can edit any tab online and save it as your Personal.

You can edit, replace or remove any tab part or add personal notes – all changes will be seen only by you.

Personal tabs can be accessed anytime from any device, even offline.
Learn more »
Give kudos to tab author, rate the tab!
1 2 3 4 5
comments
print report bad tab
1 comment total.
0 reply
xxxxChrisTxxxx [tm] 10,215 Jan 23, 2016 04:30 AM

Think the chorus riff is more like this...

G|-----------------------------------|
D|-----------------------------------|
A|---------------------------5-------|
E|---0-0-0-0-3-3-3-3-5-5-5-5-----5---|


And ending like this....
G|------------------------------|
D|------------------------------|
A|------------------------------|
E|---0--0--0-1-2-3--3-3--3--2---|

guest
You may want to rate the tab now too:
select rating
Wanna post a correction for this tab? Suggest correction