Oops, an error
Loading. Please wait.

Thick Is The Skin bass

version 1
version 1

Whole song

Interactive

323 views 1 this week
no commentswrite comment
1 2 3 4 5
3 more votes to show rating
add to favorites
×
Save as Personal and add changes to this tab that will be seen only by you. Learn more ›
×
You can save this tab as Personal to edit and correct it or add notes. All changes will be seen only by you. Learn more »
launch autoscroll
font size
0
reset
guitar tuner
edit
Autoscroll
slow
fast
+/-
esc
set tempo
stop
Author
Difficulty
Artist:Skid Row
Song:Thick is the Skin
Album:Thickskin
Bassist:Rachel Bolan
Tabber:Dev Fuld

I love this song, even though Bach isn't the singer.

Key:
x = times a number

Intro
Gb:-----------------------------|
Db:-----------------------------|
Ab:--------------------------2-0| <----Intro is x4
Eb:0-1-2-0-1-2-0-1-2-0-1-2-0----|

Verse
          x4    x2       x4
Gb:--------|-----|--------|
Db:--------|-----|--------|
Ab:--------|-----|--------|
Eb:22--0-22|Intro|22--0-22|

Pre-Chorus
Gb:----------------------|
Db:----------------------|
Ab:2x16-5x16-8x16-6x8-8x5|
Eb:----------------------|

Chorus
Gb:--------|--------|--------------|--------|--------|--------|-------|
Db:--------|--------|--------------|--------|--------|--------|-------|
Ab:--------|--------|--------------|--------|--------|--------|-------|
Eb:0003-0-5|0003-0-5|0003-0-5-6x7-5|0003-0-5|0003-0-5|0003-0-5|6x8-5x5|

Bass solo/bridge type thing
Gb:-----------|-----------|
Db:-----------|-----------|
Ab:------1-0-0|------2-3-3|
Eb:0-2-1------|0-2-1------|

Solo
Gb:-------|-----|-------|-----|----------------------|
Db:-------|-----|-------|-----|----------------------|
Ab:2x8-0x8|-----|2x8-0x8|-----|2x8-0x8-5x8-7x12------|
Eb:-------|-----|-------|-----|-----------------2-3-5|


That's it. It's an awesome song. You can figure out the order yourself, but all the parts 
are up there. Any questions or comments, e-mail me at rocklvson@yahoo.com
Suggest correction
Creating personal tab
Creating personal tab
You can edit any tab online and save it as your Personal.

You can edit, replace or remove any tab part or add personal notes – all changes will be seen only by you.

Personal tabs can be accessed anytime from any device, even offline.
Learn more »
Give kudos to tab author, rate the tab!
1 2 3 4 5
comments
print report bad tab
guest
You may want to rate the tab now too:
select rating
Wanna post a correction for this tab? Suggest correction