Oops, an error
Loading. Please wait.

A Little More Bass Tab

version 1
version 1

Whole song

Interactive

953 views 1 this week
1 commentread comment
1 2 3 4 5
2 more votes to show rating
add to favorites
launch autoscroll
font size
0
reset
guitar tuner
Autoscroll
slow
fast
+/-
esc
set tempo
stop
Help us to improve Ultimate-Guitar.com Take our survey!
×
Author
Difficulty
intermediate
band:skillet
song:A little More
Album:collide

5 string or tune to B,E,A,D
intro/verse
G-------------------------------------------------------------------------|
D-------------------------------------------------------------------------|
A-------------------------------------------------------------------------|X5
E-------------------------------------------------------------------------|
B---4----0----8----4----0----8----6----4----0----8----4----0----8----6----|

prechorus
G-------------------|
D-------------------|
A-------------------|
E-------------------|
B---4---4---4---4---|

chorus
G-------------------------------|
D-------------------------------|
A-------------------------------|X3
E-------------------------------|
B---8-8----4-4----0-0----6-6----|

G-------------------------------|
D-------------------------------|
A-------------------------------|
E-------------------------------|
B---8-8----4-4----8-8----6-6----|

intro

verse

perchorus

chorus

bridge
G----------------------------------|
D----------------------------------|
A----------------------------------|X2
E----------------------------------|
B---44--00--88--66--44--00--11--44-|

intro

verse

perchorus

chorus 2
G-----------------------------------------------------------------|
D-----------------------------------------------------------------|
A-----------------------------------------------------------------|
E-----------------------------------------------------------------|
B--8-8--4-4--0-0--6-6---8-8--4-4--0-0--1-1--8-8--4-4--0-0--6-6----|

G------------------------------------------|
D------------------------------------------|
A------------------------------------------|
E------------------------------------------|
B--8-8--4-4--8-8--4-4--1-1--3-3--4-4--6-6--|

outtro is the same as the intro
Suggest correction
Give kudos to tab author, rate the tab!
1 2 3 4 5
comments
print report bad tab
1 comment total.
0 reply
Fausch 93 Oct 27, 2010 12:55 AM

Believe it or not, there's quite a bit more to this song than just following the chord changes. I know for a fact that there's at least some bass fill in the prechorus the second time around.

guest
You may want to rate the tab now too:
select rating
Wanna post a correction for this tab? Suggest correction