Oops, an error
Loading. Please wait.

A Little More Tab

version 1
version 1

Whole song

Interactive

3,216 views 3 this week
no commentswrite comment
1 2 3 4 5
2 more votes to show rating
add to favorites
launch autoscroll
font size
0
reset
how to read this tab
guitar tuner
Autoscroll
slow
fast
+/-
esc
set tempo
stop
Help us to improve Ultimate-Guitar.com Take our survey!
×
Author
Difficulty
novice
A LITTLE MORE
As recorded by Skillet
(From the 2003 Album COLLIDE)
        

Gtr I (D A D G B E) - 'Acoustic WITH A CAPO ON THE SECOND FRET!!!!'
Gtr II (D A D G B E) - 'Distortion'
Good Song By skillet, guitars are tuned Drop D(not in standard like it says
 in the description), but guitar 1 the acoustic has a CAPO ON THE SECOND
 FRET so don’t comment and tell me how bad it sounds cause you werent
 smart enough to read this and put on the capo.

INTRO/verse
  Gtr I
|-------------------|-------------------|----------------|---------------------|
|---------4--(4)----|-------------------|----------------|---------------------|
|-------5-----------|-------------------|-------0--------|--0----1-------------|
|----6--------------|-------5-6-(6)-----|-----3----1-----|-----1---3-(3)-------|
|--4----------------|-----6-------------|---3------------|---------------------|
|-------------------|--6----------------|-3--------------|---------------------|
|
| Gtr II
|-------------------|-------------------|----------------|---------------------|
|-------------------|-------------------|----------------|---------------------|
|-10---10---(10)----|--7----------------|----------------|---------------------|
|-10---10---(10)----|--8---------8---8--|-7---7---(7)----|-(7)-------(7)--8S===|
|-------------------|-------------------|----------------|---------------------|
|-------------------|-------------------|----------------|---------------------|


|-------------------|-------------------|
|---------4--(4)----|-------------------|
|-------5-----------|-------------------|
|----6--------------|-------5-6-(6)-----|
|--4----------------|-----6-------------|
|-------------------|--6----------------|
|
|-------------------|-------------------|
|-------------------|-------------------|
|-10---10---(10)----|-(7)---------------|
|-10---10---(10)----|--8---------8---8--|
|-------------------|-------------------|
|-------------------|-------------------|


|-----------------------|--------------------------|
|-----------------------|--------------------------|
|-----------------------|--------------------------|
|--5\-1-----------------|--8--6-----6--5--6----(6)-|
|--6\-1-----------------|--------------------------|
|-----------------------|--------------------------|
|
|-----------------------|--------------------------|
|-----------------------|-13-11-13-11S10-11-10-----|
|-------10----10--------|--------------------------|
|-10S12----12----12-----|--------------------------|
|-------------------12--|--------------------------|
|-----------------------|--------------------------|

Pre chorus
I dont know exactly what the acoustic plays here, but its just this 
D# chord (with capo) and you can play around with it.
|----------------------------|------------------------------|
|----------------------------|------------------------------|
|--1-x-x-1--x-1-x-1--1-1-1-1-|--1-x-x-1--x-1--x-1--1-1-1-1--|
|--3-x-x-3--x-3-x-3--3-3-3-3-|--3-x-x-3--x-3--x-3--3-3-3-3--|
|--4-x-x-4--x-4-x-4--4-4-4-4-|--4-x-x-4--x-4--x-4--4-4-4-4--|
|----------------------------|------------------------------|
|
|----------------------------|------------------------------|
|-10-------11----------------|-10-------11---13-------------|
|--x--------x----------------|--x--------x----x-------------|
|--7--------8----------------|--7--------8---10-------------|
|----------------------------|------------------------------|
|----------------------------|------------------------------|

CHORUS
  Gtr II
I didnt put the timing in because its too hard to hear, so I just put 
four of every chord, listen to the song to get the timing
|-----------------|-----------------|-----------------|---------------------|
|-----------------|-----------------|-----------------|---------------------|
|---------8-8-8-8-|-----------------|---------8-8-8-8-|---------------------|
|-5-5-5-5-8-8-8-8-|-8-8-8-8-3-3-3-3-|-5-5-5-5-8-8-8-8-|-8-8-8-8-10-10-10-10-|
|-5-5-5-5-6-6-6-6-|-8-8-8-8-3-3-3-3-|-5-5-5-5-6-6-6-6-|-8-8-8-8-10-10-10-10-|
|-5-5-5-5---------|-8-8-8-8-3-3-3-3-|-5-5-5-5---------|-8-8-8-8-10-10-10-10-|


|-----------------|-----------------|-----------------|-----------------|
|-----------------|-----------------|-----------------|-----------------|
|---------8-8-8-8-|-----------------|-----------------|-----------------|
|-5-5-5-5-8-8-8-8-|-8-8-8-8-3-3-3-3-|-5-5-5-5-1-1-1-1-|-5-5-5-5-3-3-3-3-|
|-5-5-5-5-6-6-6-6-|-8-8-8-8-3-3-3-3-|-5-5-5-5-1-1-1-1-|-5-5-5-5-3-3-3-3-|
|-5-5-5-5---------|-8-8-8-8-3-3-3-3-|-5-5-5-5-1-1-1-1-|-5-5-5-5-3-3-3-3-|

play the verse and the prechorus and then the chours before coming to 
the solo

SOLO
The last bar isnt completely accurate
Sorry for any inconvenience caused. :P
|-----------------|-----------------------|
|-----------------|-----------------------|
|-8-8-7-7-5-5-----|-8-8-7-8-7-5-5-10-10-8-|
|-8-8-8-8-8-8-8-8-|-8-8-8-8-8-8-8--8--8-8-|
|-----------------|-----------------------|
|-----------------|-----------------------|


|-------------------|---------------------------|
|-------------------|---------------------------|
|-8-8-7-8-7-5-5-----|---12-12-12----12-12-12----|
|-8-8-8-8-8-8-8-8-8-|-8S10-10-10-10S12-12-12----|
|-------------------|---------------------------|
|-------------------|---------------------------|


Play the chorus and verse a couple times before finishing.


Suggest correction
Give kudos to tab author, rate the tab!
1 2 3 4 5
comments
print report bad tab
guest
You may want to rate the tab now too:
select rating
Wanna post a correction for this tab? Suggest correction