Oops, an error
Loading. Please wait.

Alien Youth Acoustic tab

version 4
version 4

Whole song

Interactive

by Skillet
43 views 1 this week
1 commentread comment
1 2 3 4 5
3 more votes to show rating
add to favorites
×
Save as Personal and add changes to this tab that will be seen only by you. Learn more ›
×
You can save this tab as Personal to edit and correct it or add notes. All changes will be seen only by you. Learn more »
launch autoscroll
font size
0
reset
how to read this tab
guitar tuner
edit
Autoscroll
slow
fast
+/-
esc
set tempo
stop
Difficulty
intermediate
About this tab version
This is the acoustic version of Skillet's single: Alien Youth. It could perfectly work with electric guitar. Special arrangements were done on the chords and specially on the solo, the whole piece was simplified and done for two guitars for better performance, but playing with one could work. Enjoy. Was this info helpful? Yes No
(Intro)
(both guitars do the same)
e|---------------------------------------------------------------------------|
B|---------------------------------------------------------------------------|
G|---------------------------------------------------------------------------|
D|--8-8-8---5-5--5-5---8b----------------------------------------------------|
A|--6-6-6---3-3--3-3---6---------x4------------------------------------------|
E|--6-6-6---3-3--3-3---6-----------------------------------------------------|

[Verse]
(1st Guitar)
e|---------------------------------------------------------------------------|
B|---------------------------------------------------------------------------|
G|---------------------------------------------------------------------------|
D|---8-8-8---5-5--5-5---8b---------------------------------------------------|
A|---6-6-6---3-3--3-3---x-----x8---------------------------------------------|
E|---6-6-6---3-3--3-3---x----------------------------------------------------|

(Verse)
(Rythm guitar/voice/)
e|---------------------------------------------------------------------------|
B|---------------------------------------------------------------------------|
G|---------------------------------------------------------------------------|
D|---88888888888888---5------------------------------------------------------|
A|---66666666666666---3------x4----------------------------------------------|
E|---66666666666666---3------------------------------------------------------|

[1st Pre-Chorus]
(both guitars do the same)
"C'mon freaks, let's go . . ."
e|---5-5-5--x-5--5-5----6----/---5-5-5--x-5--5-5----7----------5-5-5-5-5-5-5-5----------|
B|---5-5-5--x-5--5-5----6----/---5-5-5--x-5--5-5----7----------5-5-5-5-5-5-5-5----------|
G|---7-7-7--x-7--7-7----8----/---7-7-7--x-7--7-7----9----------7-7-7-7-7-7-7-7----------|
D|---7-7-7--x-7--7-7----8----/---7-7-7--x-7--7-7----9-------x2-7-7-7-7-7-7-7-7----------|
A|---5-5-5--x-5--5-5----6----/---5-5-5--x-5--5-5----7----------5-5-5-5-5-5-5-5----------|
E|---5-5-5--x-5--5-5----6----/---5-5-5--x-5--5-5----7----------5-5-5-5-5-5-5-5----------|

(Chorus)
(both guitars do the same)
e|---x-x-x-x---x-x-x-x---x-x-x-x---x-x-x-x------|
B|---x-x-x-x---x-x-x-x---x-x-x-x---x-x-x-x------|
G|---3-3-3-3---5-5-5-5---3-3-3-3---4-4-4-4------|
D|---3-3-3-3---5-5-5-5---3-3-3-3---4-4-4-4--x---|3)
A|---1-1-1-1---3-3-3-3---1-1-1-1---2-2-2-2------|
E|---1-1-1-1---3-3-3-3---1-1-1-1---2-2-2-2------|

e|------x-x-x-x---x-x-x-x---x-x-x-x---x-x-x-x----------------|
B|------x-x-x-x---x-x-x-x---x-x-x-x---x-x-x-x----------------|
G|------5-5-5-5---6-6-6-6---5-5-5-5---3-3-3-3----------------|
D|------5-5-5-5---6-6-6-6---5-5-5-5---3-3-3-3--x1-(to-intro--|
A|------3-3-3-3---4-4-4-4---3-3-3-3---1-1-1-1----------------|
E|------3-3-3-3---4-4-4-4---3-3-3-3---1-1-1-1----------------|

[2nd Pre-Chorus]
(1st guitar)
"and we're not gonna leave this world . . ."
e|---xxxxxxxx---xxxxxxxx-----------------------------------------------------|
B|---xxxxxxxx---xxxxxxxx---x--x--x--x--x--x--x--x---x--x--x--x--x------------|
G|---77777777---99999999---11-11-11-11-11-11-11-11--13-13-13-13-13--m--------|
D|---77777777---99999999---11-11-11-11-11-11-11-11--13-13-13-13-13--u--------|
A|---55555555---77777777---9--9--9--9--9--9--9--9---11-11-11-11-11--t--------|
E|---55555555---77777777---9--9--9--9--9--9--9--9---11-11-11-11-11--e--------|

(Rythm guitar/voice/)
e|---------------------------------------------------------------------------|
B|---------------------------------------------------------------------------|
G|---33333333---55555555---77777777---99999---m------------------------------|
D|---33333333---55555555---77777777---99999---u---(to chorus)----------------|
A|---11111111---33333333---55555555---77777---t------------------------------|
E|---11111111---33333333---55555555---77777---e------------------------------|

(Solo part 1)
(both guitars do the same)
e|---------------------------------------------------------------------------|
B|---------------------------------------------------------------------------|
G|---------------------------------------------------------------------------|
D|---------------------------------------------------------------------------|
A|---6-6-6-9s---------9b----/---9-9-9-11s-------------11b---9-9-9-11s--------|
E|------------9-9-8-9-----x2/-------------11-11-10-11------------------------|

e|---------------------------------------------------------------------------|
B|---------------------------------------------------------------------------|
G|---------------------------------------------------------------------------|
D|---------------------------------------------------------------------------|
A|---11-10-9-8-8-7-6-5----repeat-whole-solo-x3--(for-the-rythm-guitar)-------|
E|---------------------------------------------------------------------------|

(Solo part 2)
only the 1st guitar does this
the rythm guitar repeats the first part only one time awhile on
e|---10-10-10-10-10-10-10-10-------12b-x8---13b-x8---------------------------|
B|--------------------------13b-x8-------------------(back-to-pre-chorus-2)--|
G|---------------------------------------------------------------------------|
D|---------------------------------------------------------------------------|
A|---------------------------------------------------------------------------|
E|---------------------------------------------------------------------------|

************************************

| b  Bend
| x  Dead note
| /  Slide up

************************************

            
            
Suggest correction
Creating personal tab
Creating personal tab
You can edit any tab online and save it as your Personal.

You can edit, replace or remove any tab part or add personal notes – all changes will be seen only by you.

Personal tabs can be accessed anytime from any device, even offline.
Learn more »
Give kudos to tab author, rate the tab!
1 2 3 4 5
comments
print report bad tab
1 comment total.
0 reply
murallafacudiaz 390 Mar 04, 2017 06:51 PM

So many things incorrect... But at least it's a good get-go

guest
Wanna post a correction for this tab? Suggest correction