Oops, an error
Loading. Please wait.

American Noise Bass Tab

31 views 6 this week
no commentswrite comment
1 2 3 4 5
3 more votes to show rating
add to favorites
launch autoscroll
font size
0
reset
guitar tuner
Autoscroll
slow
fast
+/-
esc
set tempo
stop
Help us to improve Ultimate-Guitar.com Take our survey!
×
Author
Difficulty
novice
American noise doesn't have bass but I am bass tabbing it anyway

Bass starts at chorus 1:08
Na Na Na...
G|---------------------------------------------------------------------------|
D|---------------------------------------------------------------------------|
A|-5~------7~--------9~-------7~---------------------------------------------| x2
E|---------------------------------------------------------------------------|

Verse

G|---------------------------------------------------------------------------|
D|---------------------------------------------------------------------------|
A|--0-0-0-0-0-0-0-0-2-2-2-2--------------------------------------------------| x2
E|--------------------------3-3-3-3------------------------------------------|

Chorus 2 2:01

G|---------------------------------------------------------------------------|
D|---------------------------------------------------------------------------|
A|-5~------7~--------9~-------7~---------------------------------------------| x2
E|---------------------------------------------------------------------------|

Drink deep in the morning...

G|---------------------------------------------------------------------------|
D|----------------------------7~---------------------------------------------|
A|-5~------7~--------9~------------------------------------------------------| 
E|---------------------------------------------------------------------------|

G|---------------------------------------------------------------------------|
D|---------------------------------------------------------------------------|
A|-5~------7~--------9~-------7~---------------------------------------------| x2
E|---------------------------------------------------------------------------|

Bridge

G|---------------------------------------------------------------------------|
D|---------------------------------------------------------------------------|
A|---------------------------------------------------------------------------|
E|-0-0-0-0-0-0-0-0-----------------------------------------------------------|

G|-----------------------------------------------------------------------------------------------------------|
D|-----------------------------------------------------------------------------------------------------------|
A|-0-0-0-0-0-0-0-0-2-2-2-2-2-2-2-2-4-4-4-4-4-4-4-4-5-5-5-5-5-5-5-5-7-7-7-7-7-7-7-7-9-9-9-9-9-9-9-------------|
E|-----------------------------------------------------------------------------------------------12-12-12-12-|


Final chorus (Play until done)

G|---------------------------------------------------------------------------|
D|---------------------------------------------------------------------------|
A|-5~------7~--------9~-------7~---------------------------------------------| x2
E|---------------------------------------------------------------------------|

************************************

| x   Dead note
| g   Grace note
| (n) Ghost note
| h   Hammer-on
| p   Pull-off
| r   Release
| >   Accented note
| t   Tapping
| b   Bend
| br  Bend release
| pb  Pre-bend
| pbr Pre-bend release
| /   Slide up
| \   Slide down
| ~   Vibrato
| s   Slap
| P   Pop
| PM  Palm mute
| TR  Trill
| N   Tremolo

************************************7
Suggest correction
Give kudos to tab author, rate the tab!
1 2 3 4 5
comments
print report bad tab
guest
You may want to rate the tab now too:
select rating
Wanna post a correction for this tab? Suggest correction