Oops, an error
Loading. Please wait.

Awake And Alive Bass Tab

version 1
version 1

Whole song

Interactive

31,202 views 24 this week
3 commentsread comments
1 2 3 4 5
accurate
x 8
add to favorites
launch autoscroll
font size
0
reset
guitar tuner
Tab Pro tools
  • play this tab
  • loop segment
  • change instrument
  • show fretboard
  • metronome
×
Best way to learn
"Awake And Alive"
Autoscroll
slow
fast
+/-
esc
set tempo
stop
Contributor
Difficulty
novice
Told you I was gonna do this.  HA! lawl...
So, yeah workin on the whole album, please be patient, I'm a
Sophomore in High School, and I have TONS of homework, so just wait a few weeks 
for all the bass tabs. k?

5-string, or B, E, A, D on a 4

coma in at about 0:06
                                                     x2
G| |------------------------------------------------| |
D|o|------------------------------------------------|o|
A| |------------------------------------------------| |
E|o|-0-0--0--0-0-0--x-x-0-----5-5--5--5-8-8--x-x-10~|o|
B| |-----------------------3------------------------| |
                                     x3
| |----------------|----------------| | |----------------|----------------|
|o|----------------|----------------|o| |----------------|----------------|
| |----------------|----------------| | |----------------|----------------|
|o|-0-0--0--x-0--0-|-0-0--0--x-0--0-|o| |-5-5--5--x-5--5-|-3-3--3--x-3--5-|
| |----------------|----------------| | |----------------|----------------|
                                 x2
| |-----------------------------| | |-------------------------------|
|o|-----------------------------|o| |-------------------------------|
| |-----------------------------| | |-------------------------------|
|o|-0~~~--3~~~~~--------5~~~~~--|o| |-0---0-3-----3---------5-5-5-5-|
| |---------------3~~~----------| | |---------------3-3-3-3---------|

|-----------------------------|
|-----------------------------|
|-----------------------------|
|-3-3-3-3-3-3-3-3-------------|
|-----------------3-3-3-3-5---|
                                                    x2
| |------------------------------------------------| |
|o|------------------------------------------------|o|
| |------------------------------------------------| |
|o|-0-0--0--0-0-0--x-x-0-----5-5--5--5-8-8--x-x-10~|o|
| |-----------------------3------------------------| |
                                     x3
| |----------------|----------------| | |----------------|----------------|
|o|----------------|----------------|o| |----------------|----------------|
| |----------------|----------------| | |----------------|----------------|
|o|-0-0--0--x-0--0-|-0-0--0--x-0--0-|o| |-5-5--5--x-5--5-|-3-3--3--x-3--5-|
| |----------------|----------------| | |----------------|----------------|
                                 x2
| |-----------------------------| | |-------------------------------|
|o|-----------------------------|o| |-------------------------------|
| |-----------------------------| | |-------------------------------|
|o|-0~~~--3~~~~~--------5~~~~~--|o| |-0---0-3-----3---------5-5-5-5-|
| |---------------3~~~----------| | |---------------3-3-3-3---------|
                                                            x3
|---------------------------------| | |--------------------| |
|---------------------------------| |o|--------------------|o|
|---------------------------------| | |--------------------| |
|-3-3-3-3-3-3-3-3-----------------| |o|-0-0---0-0---2h3----|o|
|-----------------3-3-3-3-5-5-5-5-| | |-----------------3--| |

|-------------------|
|-------------------|
|-------------------|
|-0-0---0-0---2--3--|
|-------------------|

|-----------------------------------------------------------------|
|-----------------------------------------------------------------|
|-----------------------------------------------------------------|
|-5-5-5-5-5-5-5-5-3-3-3-3-3-3-3-3-----------------5-5-5-5-5-5-5-5-|
|---------------------------------3-3-3-3-3-3-3-3-----------------|

|----------------------------------------------------------|
|----------------------------------------------------------|
|----------------------------------------------------------|
|-3-3-3-3-3-3-3-3-5-5-5-5-5-5-5-5-7-7-7-7-7-7-7-9-9-9-9-9/-|
|----------------------------------------------------------|
                                 
|-----------------------------|---------------------------------|
|-----------------------------|---------------------------------|
|-----------------------------|---------------------------------|
|-0~~~--3~~~~~--------5~~~~~--|-0-0-0-0-0-0-0-0---------7-7-7-7-|
|---------------3~~~----------|-----------------3-3-3-3---------|

|----------------|
|----------------|
|----------------|
|-0-0--0--0-0-0--|
|----------------|
                                 x2                                    x2
| |-----------------------------| | | |-------------------------------| |
|o|-----------------------------|o| |o|-------------------------------|o|
| |-----------------------------| | | |-------------------------------| |
|o|-0~~~--3~~~~~--------5~~~~~--|o| |o|-0---0-3-----3---------5-5-5-5-|o|
| |---------------3~~~----------| | | |---------------3-3-3-3---------| |
                                                            x3
|---------------------------------| | |--------------------| |
|---------------------------------| |o|--------------------|o|
|---------------------------------| | |--------------------| |
|-3-3-3-3-3-3-3-3-----------------| |o|-0-0---0-0---2h3----|o|
|-----------------3-3-3-3-5-5-5-5-| | |-----------------3--| |

|-----------|
|-----------|
|-----------|
|-0-0---0-0-|
|-----------|

END

Thanks for reading, Look forward to more tabs.
PLEASE RATE AND COMMENT!!!!!
comments
print report bad tab
3 comments total.
+1 reply
CRAZYGUITAR2 wrote on September 2 2009, 10:03 pm

This is a PERFECT TAB! I love it!

0 reply
petey1993 wrote on July 12 2010, 04:42 pm

its just 0-0---2h3, no 3 on the B string

0 reply
petey1993 wrote on July 20 2010, 08:12 pm

disregard that lol. yep. perfect :)

I want to post or [tab]
guest
You may want to rate the tab now too:
select rating
Please do not post tabs as comments. Select "correction" instead!