Oops, an error
Loading. Please wait.

Awake And Alive Tab

version 2
version 2

Interactive

10,719 views 12 this week
3 commentsread comments
1 2 3 4 5
please rate
add to favorites
launch autoscroll
font size
0
reset
how to read this tab
guitar tuner
Autoscroll
slow
fast
+/-
esc
set tempo
stop
Help us to improve Ultimate-Guitar.com Take our survey!
×
Contributor
Difficulty
Tuning
intermediate
D A D G B E
The way I play it is in Drop D(closest to standard tuning). If you don't like that then
another tab! :P I personally think the song is actually played in drop D(after watching
videos), but who knows and who cares. Anyways, hope it's good enough. I did it all by 
in like an hour, although actually playing it took about 2 days(not constant playing of
Good Luck!

Also, it's a little easier to learn the solo in sections so I have pre-divided the solo
that it can be learned by individual sections first, then put together when you feel you
it under your fingers.

My cover of it:
http://www.youtube.com/watch?v=qjBMa5xbWXo
NOT THE GREATEST! but kinda gives you an idea.

..pm..= palm mute
  V   = vibrato
  S   = Slide
  H   = Hammer on
  P   = Pull
 (S)  = Optional Slide after initial articulation
  B   = Bend

(PRE-SOLO)optional.
  Figure out rythmn on your own.
E|------------------|
B|------------------|
G|-2----4----5----7-|
D|-2----4----5----7-|
A|-0----2----3----5-|
D|------------------|

(SOLO)
(Individual Section 1)
  ......pm....
E|-------------------------------------------------|
B|-------------------------------------------------|
G|-------------------------------------------------|
D|-------2-4-5-4v--5v--12v--10-9-9h10p9-4-2s4-5-14-|
A|-2-4-5-------------------------------------------|
D|-------------------------------------------------|

(Individual Section 2)
   ...pm...
E|----------------------------|
B|----------------------------|
G|-----------9h11h12p11p9h11v-|
D|---------9------------------|
A|-9-10-12--------------------|
D|----------------------------|

(Individual Section 3) Probably the most tricky
 A                                B       *taping (17) is optional
E|-----------12h14h15p14p12-------|-----------14h15h17p15p14--------|
B|--------10---------------13p12--|------10h12--------------13p12---|
G|-9h11h12----------------------12|-11h12------------------------12-|
D|--------------------------------|---------------------------------|
A|--------------------------------|---------------------------------|
D|--------------------------------|---------------------------------|

(Individual Section 4) Practice slow then work up to speed

E|-----------------------------------------------------17h19h20p19--|
B|---------------------------------------------17h19h20-------------|
G|-9h11h12-11h12h14-12h14h16-14h16h17-16h17h19----------------------|
D|------------------------------------------------------------------|
A|------------------------------------------------------------------|
D|------------------------------------------------------------------|

(continued)
---19b-17-19-19b(s)-|
--------------------|
--------------------| End of
--------------------|  solo
--------------------|
--------------------|

I encourage you to learn the rest of the song! It is a very good song and its fun to play.

Thank you for using my tab,
SimpleFlame
comments
We did not receive enough feedback on this tab! Please rate:
print report bad tab
1 2 3 4 5
3 comments total.
0 reply
stigno89 501 wrote on February 14 2011, 03:01 pm

is section 3 sweeping?

0 reply
countrywithrock 166 wrote on April 1 2011, 05:54 pm

Stigno89, I sweep. You probably don't have to, but I think it's easier. And I think it's kind of natural to sweep it anyway.

0 reply
DangerLine2011 14 wrote on August 1 2011, 11:44 am

how do u do sweep picking? its so hard for me to do! can someone like send me a message explaining how to do it?

I want to post or [tab]
guest
You may want to rate the tab now too:
select rating
Please do not post tabs as comments. Select "correction" instead!