Oops, an error
Loading. Please wait.

Awake And Alive Bass Tab

version 2
version 2

Whole song

Interactive

4,980 views 6 this week
no commentswrite comment
1 2 3 4 5
please rate
add to favorites
launch autoscroll
font size
0
reset
guitar tuner
Autoscroll
slow
fast
+/-
esc
set tempo
stop
Help us to improve Ultimate-Guitar.com Take our survey!
×
Author
--------------------------------------------------------------------------
Skillet - Awake and Alive
--------------------------------------------------------------------------


5 String Standard Tuning B E A D G
Intro:                                            2X
G|-------------------------------------------------|
D|-------------------------------------------------|
A|-------------------------------------------------|
E|---0-0-0-0--0----0---55558--------10-------------|
B|----------1---------3----------------------------|

Verse:          4X
G|-----------------|----------------------------------|
D|-----------------|----------------------------------|
A|-----------------|----------------------------------|
E|----00-00-0-0----|--00-00-0-0--00-00-0-0--55-55-5-5-|
B|-----------------|----------------------------------|


G|--------------|
D|--------------|
A|--------555555|
E|--333333------|
B|--------------|

Chorus:        
G|----------------------|---------------------|
D|----------------------|---------------------|
A|-------3--------5----|------3-3------555----|
E|--0--------3---------|--0-0-----333---------|
B|----------------------|---------------------|

G|-------------------------------------------------|
D|-------------------------------------------------|
A|---33333333--------------------------------------|
E|--------------55557------------------------------|
B|-------------------------------------------------|

Intro:                                            2X
G|-------------------------------------------------|
D|-------------------------------------------------|
A|-------------------------------------------------|
E|---0-0-0-0--0----0---55558--88---10--------------|
B|----------1--------3-----------------------------|

Verse:          4X
G|-------------------------------------------------|
D|-------------------------------------------------|
A|-------------------------------------------------|
E|----00-00-0-0----00-00-0-0--00-00-0-0--55-55-5-5-|
B|-------------------------------------------------|

G|--------------|
D|--------------|
A|--------55555-|
E|--333333------|
B|--------------|

Chorus:        
G|----------------------|---------------------|
D|----------------------|---------------------|
A|-------3--------5-----|------3-3------555---|
E|--0--------3----------|--0-0-----333--------|
B|----------------------|---------------------|

G|------------------------------------------------|
D|------------------------------------------------|
A|---33333333-------------------------------------|
E|--------------5555777---------------------------|
B|------------------------------------------------|

Bridge: Waking up…. guitar is doing it's own thing between
the bass notes. the bass just stays with the bass drum.  
G|----------------------------------------------------|
D|----------------------------------------------------|
A|----------------------------------------------------|
E|----00-000---00-000---00-000---00-000---------------|
B|----------------------------------------------------|

G|-------------------------------------------------|
D|-------------------------------------------------|
A|-------------------------------------------------|
E|----5---5----------------------------------------|
B|-------------5---5-----1111-------3333-----------|


G|--------------------------------------------------------|
D|--------------------------------------------------------|
A|--------------------------------------------------------|
E|------5555555777777788888810101010----------------------|
B|--------------------------------------------------------|


Solo:
G|----------------------------------------------------------------|
D|----------------------------------------------------------------|
A|-----33------5--------------------------------------------------|
E|----------------------------------------------------------------|
B|----------------55----3-----11111-------33333---------0---------|


G|-----------------|
D|-----------------|
A|-----------------|
E|---0-0-0-0--0----|
B|----------1------|

Chorus:        
G|----------------------|---------------------|
D|----------------------|---------------------|
A|-------3--------5-----|------3-3------555---|
E|--0--------3----------|--0-0-----333--------|
B|----------------------|---------------------|

G|--------------------------------------------|
D|--------------------------------------------|
A|---33333333---------------------------------|
E|--------------5555777-----------------------|
B|--------------------------------------------|

Bridge: End…Waking up….
G|-------------------------------------------------|
D|-------------------------------------------------|
A|-------------------------------------------------|
E|----00-000--00-000--00-000--00-000---------------|
B|-------------------------------------------------|

This is my first tab. Please rate it. 





Suggest correction
Give kudos to tab author, rate the tab!
1 2 3 4 5
comments
print report bad tab
guest
You may want to rate the tab now too:
select rating
Wanna post a correction for this tab? Suggest correction