Oops, an error
Loading. Please wait.

Awake And Alive Bass Tab

version 3
version 3

Whole song

Interactive

4,457 views 15 this week
1 commentread comment
1 2 3 4 5
accurate
x 4
add to favorites
launch autoscroll
font size
0
reset
guitar tuner
Tab Pro tools
  • play this tab
  • loop segment
  • change instrument
  • show fretboard
  • metronome
×
Best way to learn
"Awake And Alive"
Autoscroll
slow
fast
+/-
esc
set tempo
stop
Difficulty
Tuning
novice
D A D G B E
I wrote this tab for 4-stringers tuned down to Drop D,
because it's much easier than tuning down 5 halfsteps to BEAD.

come in at about 0:06
                                                   x2
G|--------------------------------------------------|
D|--------------------------------------------------|
A|--------------------------------------------------|
D|-2-2--2--2-2-2--x-x-2--0--7-7--7--7-10-10--x-x-12~|
                                 x3
|----------------|----------------|----------------|----------------|
|----------------|----------------|----------------|----------------|
|----------------|----------------|----------------|----------------|
|-2-2--2--x-2--2-|-2-2--2--x-2--2-|-7-7--7--x-7--7-|-5-5--5--x-5--7-|
                             x2
|-----------------------------|-------------------------------|
|-----------------------------|-------------------------------|
|-----------------------------|-------------------------------|
|-2~~~--5~~~~~--0~~~--7~~~~~--|-2---2-5-----5-0-0-0-0-7-7-7-7-|

|-----------------------------|
|-----------------------------|
|-----------------------------|
|-5-5-5-5-5-5-5-5-0-0-0-0-2---|
                                                  x2
|--------------------------------------------------|
|--------------------------------------------------|
|--------------------------------------------------|
|-2-2--2--2-2-2--x-x-2--0--7-7--7--7-10-12--x-x-12~|

                                 x3
|----------------|----------------|----------------|----------------|
|----------------|----------------|----------------|----------------|
|----------------|----------------|----------------|----------------|
|-2-2--2--x-2--2-|-2-2--2--x-2--2-|-7-7--7--x-7--7-|-5-5--5--x-5--7-|

                             x2
|-----------------------------|-------------------------------|
|-----------------------------|-------------------------------|
|-----------------------------|-------------------------------|
|-2~~~--5~~~~~--0~~~--7~~~~~--|-2---2-5-----5-0-0-0-0-7-7-7-7-|

                                                      x3
|---------------------------------|--------------------|
|---------------------------------|--------------------|
|---------------------------------|--------------------|
|-5-5-5-5-5-5-5-5-0-0-0-0-2-2-2-2-|-2-2---2-2---4h5-0--|

|-------------------|
|-------------------|
|-------------------|
|-2-2---2-2---4--5--|

|-----------------------------------------------------------------|
|-----------------------------------------------------------------|
|-----------------------------------------------------------------|
|-7-7-7-7-7-7-7-7-5-5-5-5-5-5-5-5-0-0-0-0-0-0-0-0-7-7-7-7-7-7-7-7-|

|---------------------------------------------------------------|
|---------------------------------------------------------------|
|---------------------------------------------------------------|
|-5-5-5-5-5-5-5-5-7-7-7-7-7-7-7-7-9-9-9-9-9-9-9-11-11-11-11-11/-|
                                 
|-----------------------------|---------------------------------|
|-----------------------------|---------------------------------|
|-----------------------------|---------------------------------|
|-2~~~--5~~~~~--0~~~--7~~~~~--|-2-2-2-2-2-2-2-2-0-0-0-0-9-9-9-9-|

|----------------|
|----------------|
|----------------|
|-2-2--2--2-2-2--|

                             x2                              x2
|-----------------------------|-------------------------------|
|-----------------------------|-------------------------------|
|-----------------------------|-------------------------------|
|-2~~~--5~~~~~--0~~~--7~~~~~--|-2---2-5-----5-0-0-0-0-7-7-7-7-|

                                                      x3
|---------------------------------|--------------------|
|---------------------------------|--------------------|
|---------------------------------|--------------------|
|-5-5-5-5-5-5-5-5-0-0-0-0-7-7-7-7-|-2-2---2-2---4h5-0--|

|-----------|
|-----------|
|-----------|
|-2-2---2-2-|

END
comments
print report bad tab
1 comment total.
0 reply
olstnick wrote on March 29 2014, 10:52 pm

This tab is spot on. Good job

I want to post or [tab]
guest
You may want to rate the tab now too:
select rating
Please do not post tabs as comments. Select "correction" instead!