Oops, an error
Loading. Please wait.

Awake And Alive Tab

version 4
version 4
3,035 views 12 this week
no commentswrite comment
1 2 3 4 5
x 3
add to favorites
launch autoscroll
font size
0
reset
how to read this tab
guitar tuner
Autoscroll
slow
fast
+/-
esc
set tempo
stop
Help us to improve Ultimate-Guitar.com Take our survey!
×
Author
Tuning
D A D G B E
'Awake and Alive' by Skillet on the Awake album
Tuning: drop D
tabbered by: panterarocks25
Guitarist: Ben Kasica

t - tap
h - hammer-on
p - pull off
~ - vibrato
/ - slide
* - plam mute

Intro(x2) - while the violins are playing...

e]-------------------------------|
B]-------------------------------|
G]-------------------------------|
D]-9*-9*-9*-9*-9*-9*-9*-9*-9*-9*-|
A]-7*-7*-7*-7*-7*-7*-7*-7*-7*-7*-|
D]-------------------------------|


Intro(x2) 0:05

e]---------------------------------------------|
B]---------------------------------------------|
G]-------------------------2-2--2--0-5--x-x--0-|
D]-2-2--2--0-2---x-x--2-0--2-2--2--0-5--x-x--0-|
A]-2-2--2--0-2---x-x--2-0--0-0--0--0-3--x-x--0-|
D]-2-2--2--0-2---x-x--2-0----------------------|


Verse(x3) 0:19

e]--------------|
B]--------------|
G]--------------|
D]-2-2--2--2*-2-|
A]-2-2--2--2*-2-|
D]-2-2--2--2*-2-|

Verse  0:38
let the last note ring out for a little bit

e]---------------------------------|
B]---------------------------------|
G]---------------------------------|
D]-7-7--7--7*-7----5-5--5--5*-5--0-|
A]-7-7--7--7*-7----5-5--5--5*-5--0-|
D]-7-7--7--7*-7----5-5--5--5*-5--0-|


Chorus(x3) 0:43

e]------------------------------------------------|
B]------------------------------------------------|
G]-------------3--5-5-5-5-------------------------|
D]-2--2-2-2-2--3--5-5-5-5--5--5-5-5-5--0--0-0-0-0-|
A]-2--2-2-2-2--3--3-3-3-3--5--5-5-5-5--0--0-0-0-0-|
D]-2--2-2-2-2--------------5--5-5-5-5--0--0-0-0-0-|


Chorus  1:02

e]------------------------|
B]------------------------|
G]-5--5-5-5-5--2--2-2-2-2-|
D]-5--5-5-5-5--2--2-2-2-2-|
A]-3--3-3-3-3--0--0-0-0-0-|
D]------------------------|


Intro(x2)  1:08

e]--------------------------------------------|
B]--------------------------------------------|
G]------------------------2-2--2--0-5--x-x--0-|
D]-2-2--2--0-2---x-x-2-0--2-2--2--0-5--x-x--0-|
A]-2-2--2--0-2---x-x-2-0--0-0--0--0-3--x-x--0-|
D]-2-2--2--0-2---x-x-2-0----------------------|


Verse(x3)  1:20

e]--------------|
B]--------------|
G]--------------|
D]-2-2--2--2*-2-|
A]-2-2--2--2*-2-|
D]-2-2--2--2*-2-|


Verse  1:38

e]---------------------------------|
B]---------------------------------|
G]---------------------------------|
D]-7-7--7--7*-7----5-5--5--5*-5--0-|
A]-7-7--7--7*-7----5-5--5--5*-5--0-|
D]-7-7--7--7*-7----5-5--5--5*-5--0-|


Chorus(x3)  1:43

e]--------------------------------------------|
B]--------------------------------------------|
G]-----------5--5-5-5-5-----------------------|
D]-2--2-2-2--5--5-5-5-5--5--5-5-5--0--0-0-0-0-|
A]-2--2-2-2--3--3-3-3-3--5--5-5-5--0--0-0-0-0-|
D]-2--2-2-2--------------5--5-5-5--0--0-0-0-0-|


Chorus  2:02

e]------------------------|
B]------------------------|
G]-5--5-5-5-5--2--2-2-2-2-|
D]-5--5-5-5-5--2--2-2-2-2-|
A]-3--3-3-3-3--0--0-0-0-0-|
D]------------------------|


Post-Chorus(x4)  2:08

e]-----------------|
B]-----------------|
G]-----------------|
D]-2-2--2-2--5-7-0-|
A]-2-2--2-2--5-7-0-|
D]-2-2--2-2--5-7-0-|


Bridge  2:20

e]-----------------|
B]-----------------|
G]-----------------|
D]-2-2--2-2--4-5-7-|
A]-2-2--2-2--4-5-7-|
D]-2-2--2-2--4-5-7-|

do this part about 2 times

e]------------------------------------------------------------|
B]------------------------------------------------------------|
G]-----------------------------------5--5-5-5-5---------------|
D]--7-7-7-7--0--0-0-0-0--2--2-2-2-2--5--5-5-5-5---------------|
A]--7-7-7-7--0--0-0-0-0--2--2-2-2-2--3--3-3-3-3--5--5-5-5-5-5-|
D]--7-7-7-7--0--0-0-0-0--2--2-2-2-2--------------5--5-5-5-5-5-|


Pre-Solo

e]--------------------------------------------------------------------|
B]--------------------------------------------------------------------|
G]-2*-2*-2*-2*-2*--4*-4*-4*-4*-4*--5*-5*-5*-5*-5*--7*-7*-7*-7*-7*-7-7-|
D]-2*-2*-2*-2*-2*--4*-4*-4*-4*-4*--5*-5*-5*-5*-5*--7*-7*-7*-7*-7*-7-7-|
A]-0*-0*-0*-0*-0*--2*-2*-2*-2*-2*--3*-3*-3*-3*-3*--5*-5*-5*-5*-5*-5-5-|
D]--------------------------------------------------------------------|


Solo  2:37
once you get to the palm mutes flip your switch up to rhythm if you have one

e]----------------------------------------------------------------------|
B]----------------------------------------------------------------------|
G]---------------------------------------------~9------------9*-11*-12*-|
D]-------5-7-9-------~12--10-9-10p9---------------9*-10*-12*------------|
A]-5-7-9-------/9-10----------------12p10p9h10--------------------------|
D]----------------------------------------------------------------------|


e]--------------------12-14-15-14-12----------------------12-14-15-17t-|
B]-----------------12----------------------------------12--------------|
G]-11*-9*-11-12-14-------------------16-12-11-11-12-14-----------------|
D]---------------------------------------------------------------------|
A]---------------------------------------------------------------------|
D]---------------------------------------------------------------------|


e]-15-14-12-----------------------------------------------------------|
B]-----------------------------------------------------------17-19-20-|
G]----------16-12-11--11-12-14--12-14-16--14-16-17--16-18-19----------|
D]--------------------------------------------------------------------|
A]--------------------------------------------------------------------|
D]--------------------------------------------------------------------|

let last note ring

e]-17-19-20-~19-|
B]--------------|
G]--------------|
D]--------------|
A]--------------|
D]--------------|


Chorus(x3)  2:53

e]------------------------------------------------|
B]------------------------------------------------|
G]-------------5--5-5-5-5-------------------------|
D]-2--2-2-2-2--5--5-5-5-5--5--5-5-5-5--0--0-0-0-0-|
A]-2--2-2-2-2--3--3-3-3-3--5--5-5-5-5--0--0-0-0-0-|
D]-2--2-2-2-2--------------5--5-5-5-5--0--0-0-0-0-|


Chorus  1:02

e]------------------------|
B]------------------------|
G]-5--5-5-5-5--2--2-2-2-2-|
D]-5--5-5-5-5--2--2-2-2-2-|
A]-3--3-3-3-3--0--0-0-0-0-|
D]------------------------|


Post-Chorus(x4)  3:17

e]-----------------|
B]-----------------|
G]-----------------|
D]-2-2--2-2--5-7-0-|
A]-2-2--2-2--5-7-0-|
D]-2-2--2-2--5-7-0-|

end on the 2nd fret

e]-----
B]-----
G]-----
D]-2-2-
A]-2-2-
D]-2-2-
Suggest correction
Give kudos to tab author, rate the tab!
1 2 3 4 5
comments
print report bad tab
guest
You may want to rate the tab now too:
select rating
Wanna post a correction for this tab? Suggest correction