Oops, an error
Loading. Please wait.

Awake And Alive Tab

version 6
version 6
4,953 views 9 this week
1 commentread comment
1 2 3 4 5
x 3
add to favorites
launch autoscroll
font size
0
reset
how to read this tab
guitar tuner
Autoscroll
slow
fast
+/-
esc
set tempo
stop
Help us to improve Ultimate-Guitar.com Take our survey!
×
Author
Difficulty
Tuning
advanced
C G C F A D
Skillet
Awake
Awake and Alive

Tabbed By: Rulerof52

Transposed Half-step up By Benno!-96
All credit goes to Rulerof52, the original uploader.

I merely transposed the song up half a step
to accommodate for my 22 fret guitar, 
as the solo goes up to 23 frets in Drop B.

Tuning: Drop C


Intro - 0:00  (x2)
D|--------------------------------------------|
A|--------------------------------------------|
F|--------------------------------------------|
C|--------------------------------------------|
G|--------------------------------------------|
C|-4-4-4-4-4-4-4-4-4-4-4-4-4-4-4-4------------|

Intro - 0:05  (x2)
D|--------------------------------------------|
A|--------------------------------------------|
F|------------------------4-4--4--4-7--x-x-9--|
C|-4-4--4--2-4---x-x-4-2--4-4--4--4-7--x-x-9--|
G|-4-4--4--2-4---x-x-4-2--2-2--2--2-5--x-x-7--|
C|-4-4--4--2-4---x-x-4-2----------------------|

Verse - 0:19 (x3)
D|--------------------------------------------|
A|--------------------------------------------|
F|--------------------------------------------|
C|-4-4--4--x-4--4----4-4--4--x-4--4-----------|
G|-4-4--4--x-4--4----4-4--4--x-4--4-----------|
C|-4-4--4--x-4--4----4-4--4--x-4--4-----------|

Verse - 0:38
D|--------------------------------------------|
A|--------------------------------------------|
F|-4-4--4--x-4--4----2-2--2--x-2--2--9--------|
C|-4-4--4--x-4--4----2-2--2--x-2--2--9--------|
G|-2-2--2--x-2--2----0-0--0--x-0--0--7--------|
C|--------------------------------------------|

Chorus - 0:43 (x3)
D|--------------------------------------------|
A|--------------------------------------------|
F|------------2--2----------------------------|
C|-4--4-0--0--2--2-2--2-----------------------|
G|-4--4-0--0--0--0-2--2-----------------------|
C|-4--4-0--0-------2--2-----------------------|

Chorus - 1:02
D|--------------------------------------------|
A|--------------------------------------------|
F|-7-7-7-7-7-7-7-7-4-4-4-4-6------------------|
C|-7-7-7-7-7-7-7-7-4-4-4-4-6------------------|
G|-5-5-5-5-5-5-5-5-2-2-2-2-4------------------|
C|--------------------------------------------|

Intro - 1:08  (x2)
D|--------------------------------------------|
A|--------------------------------------------|
F|------------------------4-4--4--4-7--x-x-9--|
C|-4-4--4--2-4---x-x-4-2--4-4--4--4-7--x-x-9--|
G|-4-4--4--2-4---x-x-4-2--2-2--2--2-5--x-x-7--|
C|-4-4--4--2-4---x-x-4-2----------------------|

Verse - 1:20  (x3)
D|--------------------------------------------|
A|--------------------------------------------|
F|--------------------------------------------|
C|-4-4--4--x-4--4----4-4--4--x-4--4-----------|
G|-4-4--4--x-4--4----4-4--4--x-4--4-----------|
C|-4-4--4--x-4--4----4-4--4--x-4--4-----------|

Verse - 1:38
D|--------------------------------------------|
A|--------------------------------------------|
F|-4-4--4--x-4--4----2-2--2--x-2--2--9--------|
C|-4-4--4--x-4--4----2-2--2--x-2--2--9--------|
G|-2-2--2--x-2--2----0-0--0--x-0--0--7--------|
C|--------------------------------------------|

Chorus - 1:43 (x3)
D|--------------------------------------------|
A|--------------------------------------------|
F|------------2--2----------------------------|
C|-4--4-0--0--2--2-2--2-----------------------|
G|-4--4-0--0--0--0-2--2-----------------------|
C|-4--4-0--0-------2--2-----------------------|

Chorus - 2:02
D|--------------------------------------------|
A|--------------------------------------------|
F|-7-7-7-7-7-7-7-7-4-4-4-4-6------------------|
C|-7-7-7-7-7-7-7-7-4-4-4-4-6------------------|
G|-5-5-5-5-5-5-5-5-2-2-2-2-4------------------|
C|--------------------------------------------|

Post-Chorus - 2:08 (x4)
D|--------------------------------------------|
A|--------------------------------------------|
F|--------------------------------------------|
C|-4-4--4-4--6-7-2----------------------------|
G|-4-4--4-4--6-7-2----------------------------|
C|-4-4--4-4--6-7-2----------------------------|

Bridge - 2:20
D|--------------------------------------------|
A|--------------------------------------------|
F|-4-4-4-4-4-4--------------------------------|
C|-4-4-4-4-4-4-2-2-4-4-4-4-4-4-2-2------------|
G|-2-2-2-2-2-2-2-2-4-4-4-4-4-4-2-2------------|
C|-------------2-2-4-4-4-4-4-4-2-2------------|

D|--------------------------------------------|
A|--------------------------------------------|
F|-7-7-7-7-7-7-7-7-9--9--9--9--9--9--9--9-----|
C|-7-7-7-7-7-7-7-7-9--9--9--9--9--9--9--9-----|
G|-5-5-5-5-5-5-5-5-7--7--7--7--7--7--7--7-----|
C|--------------------------------------------|

D|--------------------------------------------|
A|--------------------------------------------|
F|-4-4-4-4-4-4-4-4-6-6-6-6-6-6-6-6------------|
C|-4-4-4-4-4-4-4-4-6-6-6-6-6-6-6-6------------|
G|-2-2-2-2-2-2-2-2-4-4-4-4-4-4-4-4------------|
C|--------------------------------------------|

Solo - 2:37 
Guitar 1
D|--------------------------------------------|
A|--------------------------------------------|
F|-7-7-7-7-7-7--------------------------------|
C|-7-7-7-7-7-7-9-9-4-4-4-4-4-4-2-2------------|
G|-5-5-5-5-5-5-7-7-4-4-4-4-4-4-2-2------------|
C|-----------------4-4-4-4-4-4-2-2------------|

D|--------------------------------------------|
A|--------------------------------------------|
F|-7-7-7-7-7-7-7-7-9-9-9-9--------------------|
C|-7-7-7-7-7-7-7-7-9-9-9-9-4-4-4-4------------|
G|-5-5-5-5-5-5-5-5-7-7-7-7-4-4-4-4------------|
C|-------------------------6-6-6-6------------|

Guitar 2
D|--------------------------------------------|
A|--------------------------------------------|
F|-----------------------9-9-7-6-7-6----------|
C|---------7-9-11-6b7-7---------------7-6-----|
G|-7-9-11-------------------------------------|
C|--------------------------------------------|

D|--------------------------------------------|
A|-------7------------------9-----------------|
F|------------------9-11-12---13-11-13--------|
C|-6b7-7---9-11-12----------------------------|
G|--------------------------------------------|
C|--------------------------------------------|

D|-------------14-16-17-16-14-----------------|
A|----------14---------------14---------------|
F|-13-14-16---------------------14-13---------|
C|--------------------------------------------|
G|--------------------------------------------|
C|--------------------------------------------|

D|----------14-16-17/19-17-16-----------------|
A|-------14-------------------14--------------|
F|-13-14-------------------------14-14--------|
C|--------------------------------------------|
G|--------------------------------------------|
C|--------------------------------------------|

D|--------------------------------------------|
A|----------------12----12-14-12-14-15--------|
F|-11-13-14-13-14----14-----------------------|
C|--------------------------------------------|
G|--------------------------------------------|
C|--------------------------------------------|

D|-------12-14-16-17-19-21b22r21-21b22r21-----|
A|-14-15--------------------------------------|
F|--------------------------------------------|
C|--------------------------------------------|
G|--------------------------------------------|
C|--------------------------------------------|

D|--------------------------------------------|
A|--------------------------------------------|
F|--------------------------------------------|
C|-4-4--4--4-4---4----------------------------|
G|-4-4--4--4-4---4----------------------------|
C|-4-4--4--4-4---4----------------------------|

Chorus - 2:53 (x3)
D|--------------------------------------------|
A|--------------------------------------------|
F|------------2--2----------------------------|
C|-4--4-0--0--2--2-2--2-----------------------|
G|-4--4-0--0--0--0-2--2-----------------------|
C|-4--4-0--0-------2--2-----------------------|

Chorus - 3:11
D|--------------------------------------------|
A|--------------------------------------------|
F|-7-7-7-7-7-7-7-7-4-4-4-4-6--6--6------------|
C|-7-7-7-7-7-7-7-7-4-4-4-4-6--6--6------------|
G|-5-5-5-5-5-5-5-5-2-2-2-2-4--4--4------------|
C|--------------------------------------------|

Post-Chorus - 3:17 (x4)
D|--------------------------------------------|
A|--------------------------------------------|
F|--------------------------------------------|
C|-4-4--4-4--6-7-2----------------------------|
G|-4-4--4-4--6-7-2----------------------------|
C|-4-4--4-4--6-7-2----------------------------|
Suggest correction
Give kudos to tab author, rate the tab!
1 2 3 4 5
comments
print report bad tab
1 comment total.
0 reply
Rulerof54 10 Jan 26, 2014 01:47 PM

Next time please ask permission before copying my tab! I would have said no.

guest
You may want to rate the tab now too:
select rating
Wanna post a correction for this tab? Suggest correction