Oops, an error
Loading. Please wait.
We have an official Awake And Alive tab made by UG professional guitarists. Check out the tab »
×

Awake And Alive tab

version 7
version 7

Whole song

Interactive

by Skillet
145 views 1 this week
no commentswrite comment
1 2 3 4 5
2 more votes to show rating
add to favorites
×
Save as Personal and add changes to this tab that will be seen only by you. Learn more ›
×
You can save this tab as Personal to edit and correct it or add notes. All changes will be seen only by you. Learn more »
launch autoscroll
font size
0
reset
how to read this tab
guitar tuner
backing track
0:00
0:00
edit
Autoscroll
slow
fast
+/-
esc
set tempo
stop
About this tab version
If you play this with the actual song itself, you will benefit from exact chording and sound. Please make changes if need. Ive played this version for 5 years and I still haven't changed any chords. Was this info helpful? Yes No
This tab has only the back up guitars solo when it gets to the solo

[Starter]
Db|---------------|
G#|---------------|
E |---11-11-11-11-|
B |---11-11-11-11-|  X4
F#|---9 -9 -9 -9 -| 
B |---------------|

[Intro]
Db|----------------|----------------|-----|         |-9-9-----|---------|
G#|----------------|----------------|-----|         |-----9-9-|10-10-7-7|
E |----------------|-------4-4-4-4-7|-----|         |---------|---------|
B |----------------|-------4-4-4-4-7|-----| X2      |---------|---------|
F#|---4-4---4-4-4--|-4-4-2-2-2-2-2-5|-2---|         |---------|---------|
B |---4-4---4-4-4--|-4-4-2----------|-2---|         |---------|---------|

[Verse]]
Db|-----------|---------|
G#|-----------|---------|
E |-----------|---------|
B |-----------|---------|  x6
F#|---4-4--4--|--4-4----|
B |---4-4--4--|--4-4----|


Db|-----------|-----------|-------------|
G#|-----------|-----------|-------------|
E |---4-4-4---|4-4--------|-------------| Pause 2 sec
B |---4-4-4---|4-4-2-2-2--|-2-2-6-6-6---|
F#|---2-2-2---|2-2-0-0-0--|-0-0-6-6-6---|
B |-----------|-----------|-------------|

[Chorus]
Db|--------|--------|--------|------------|
G#|--------|--------|--------|------------|
E |--------|-7-7-7-7|-7------|-9-9-9-9-9--|
B |--------|-7-7-7-7|-7------|-9-9-9-9-9--|  x2
F#|---4-4-4|-5-5-5-5|-5-7-7-7|-7-7-7-7-7--|
B |---4-4-4|--------|---7-7-7|------------|


Db|---------|-------|--------|-------|
G#|---------|-------|--------|-------|
E |---------|-7-7---|--------|9-9----|
B |---------|-7-7---|--------|9-9----|
F#|---4-4---|-5-5---|-7-7----|7-7----|
B |---4-4---|-------|-7-7----|-------|



Db|----------|---------|---------|-------------|
G#|----------|---------|---------|-------------|
E |---7-7-7-7|-7-7-7-7-|-4-4-4-4-|4-4-4-4-|-6--|
B |---7-7-7-7|-7-7-7-7-|-4-4-4-4-|4-4-4-4-|-6--|
F#|---5-5-5-5|-5-5-5-5-|-2-2-2-2-|2-2-2-2-|-4--|
B |----------|---------|---------|-------------|
[Intro]
[Verse]
[Chorus]

[Bridge]
Db|--------|-------|-------|
G#|--------|-------|-------|
E |--------|-------|-------|
B |--------|-------|-------|  x4
F#|---4-4--|-4-4-4-|-0-2---|
B |---4-4--|-4-4-4-|-----2-|

[Cont.]
Db|----------|---------|--------|---------|--------|----------|
G#|----------|---------|--------|---------|--------|----------|
E |---4-4-4-4|-4-4-4-4-|--------|---------|-7-7-7-7|-7-7-7-7--|
B |---4-4-4-4|-4-4-4-4-|--------|---------|-7-7-7-7|-7-7-7-7--|
F#|---2-2-2-2|-2-2-2-2-|-4-4-4-4|-4-4-4-4-|-5-5-5-5|-5-5-5-5--|
B |----------|---------|-4-4-4-4|-4-4-4-4-|--------|----------|

[Cont.]
Db|----------|---------|---------|---------|---------|------------|
G#|----------|---------|---------|---------|---------|------------|
E |---9-9-9-9|-9-9-9-9-|-4-4-4-4-|-6-6-6-6-|-7-7-7-7-|-9-9-9-9----|
B |---9-9-9-9|-9-9-9-9-|-4-4-4-4-|-6-6-6-6-|-7-7-7-7-|-9-9-9-9----|
F#|---7-7-7-7|-7-7-7-7-|-2-2-2-2-|-4-4-4-4-|-5-5-5-5-|-7-7-7-7----|
B |----------|---------|---------|---------|---------|------------|

[Back Up Solo]
Db|----------|---------|--------|---------|---------|--------|---------|----------|
G#|----------|---------|--------|---------|---------|--------|---------|----------|
E |---4-4-4-4|-4-4-4-4-|--------|---------|-7-7-7-7-|7-7-7-7-|-9-9-9-9-|9-9-9-9---|
B |---4-4-4-4|-4-4-4-4-|--------|---------|-7-7-7-7-|7-7-7-7-|-9-9-9-9-|9-9-9-9---|
F#|---2-2-2-2|-2-2-2-2-|-4-4-4-4|-4-4-4-4-|-5-5-5-5-|5-5-5-5-|-7-7-7-7-|7-7-7-7---|
B |----------|---------|-4-4-4-4|-4-4-4-4-|---------|--------|---------|----------|


Db|-----------|------|
G#|-----------|------|
E |-----------|------|
B |-----------|------|  Pause 2 sec
F#|---4-4--4--|-4-4--|
B |---4-4--4--|-4-4--|



*******************
      x  Dead Note
      B  Bend
      PM Palm Mute
******************** 
After the Back Up Solo, go back to Chorus then do Bridge X4



Please play with the actual song for exact timing between power chords. It is hard to do timing in 
this.  


Enjoy



            
            
Suggest correction
Creating personal tab
Creating personal tab
You can edit any tab online and save it as your Personal.

You can edit, replace or remove any tab part or add personal notes – all changes will be seen only by you.

Personal tabs can be accessed anytime from any device, even offline.
Learn more »
Give kudos to tab author, rate the tab!
1 2 3 4 5
comments
print report bad tab
guest
You may want to rate the tab now too:
select rating
Wanna post a correction for this tab? Suggest correction