Oops, an error
Loading. Please wait.

Back From The Dead tab

by Skillet
8,725 views 78 this week
14 commentsread comments
1 2 3 4 5
x 9
add to favorites
×
Save as Personal and add changes to this tab that will be seen only by you. Learn more ›
×
You can save this tab as Personal to edit and correct it or add notes. All changes will be seen only by you. Learn more »
launch autoscroll
font size
0
reset
how to read this tab
guitar tuner
edit
Autoscroll
slow
fast
+/-
esc
set tempo
stop
Tuning: Drop D(DADGBe)
BPM: 162

[Intro]

e|-------------------|---------------------|
B|-------------------|---------------------|
G|-------------------|---------------------| x2
D|--2-2-----2-0------|--2-2-----2/5---0----|
A|--2-2-----2-0------|--2-2-----2/5---0----|
D|--2-2-----2-0------|--2-2-----2/5---0----|

e|---------------------|---------------------|
B|--------------8-8-8--|---------------------|
G|--------------x-x-x--|---------------------| x2
D|--2-2-----2-0-5-5-5--|--2-2-----2/5---0----|
A|--2-2-----2-0--------|--2-2-----2/5---0----|
D|--2-2-----2-0--------|--2-2-----2/5---0----|


[Verse 1]
PM-------------|      PM-----------------|
e|---------------------|---------------------|
B|---------------------|---------------------|
G|---------------------|---------------------| x4
D|--------------5-5-5--|---------------------|
A|---------------------|---------------------|
D|--2-2-----2-0--------|--2-2-----2/5---0----|


e|-------------------|---------------------|
B|-------------------|---------------------|
G|-------------------|---------------------| x2
D|--2-2-----2-0------|--2-2-----2/5---0----|
A|--2-2-----2-0------|--2-2-----2/5---0----|
D|--2-2-----2-0------|--2-2-----2/5---0----|


[Pre-Chorus]

e|--------------------------------------------------------------------------|
B|--------------------------------------------------------------------------|
G|--5-5-5-5-5-5-5-5-7-7-7-7-9-9-9-9-12-12-12-12-12-12-12-12-14-14-14-14-16--|
D|--x-x-x-x-x-x-x-x-x-x-x-x-x-x-x-x-x--x--x--x--x--x--x--x--x--x--x--x--x---|
A|--3-3-3-3-3-3-3-3-5-5-5-5-7-7-7-7-10-10-10-10-10-10-10-10-12-12-12-12-14--|
D|--------------------------------------------------------------------------|

e|--------------8-8-8-|
B|--------------x-x-x-|
G|--------------5-5-5-|
D|--------------------|
A|--------------------|
D|--------------------|


[Chorus]

e|-------------------------------------------------------------------|
B|-------------------------------------------------------------------|
G|----------------------------------5-5-5-5-5-5-5-5-2-2-2-2-4-4-4-4--|
D|--2-2-2-2-2-2-2-2-0-0-0-0-0-0-0-0-5-5-5-5-5-5-5-5-2-2-2-2-4-4-4-4--|
A|--2-2-2-2-2-2-2-2-0-0-0-0-0-0-0-0-3-3-3-3-3-3-3-3-0-0-0-0-2-2-2-2--|
D|--2-2-2-2-2-2-2-2-0-0-0-0-0-0-0-0----------------------------------|

e|-------------------------------------------------------------------|
B|-------------------------------------------------------------------|
G|----------------------------------6-6-6-6-6-6-6-6-2-2-2-2-4-4-4-4--|
D|--2-2-2-2-2-2-2-2-0-0-0-0-0-0-0-0-6-6-6-6-6-6-6-6-2-2-2-2-4-4-4-4--|
A|--2-2-2-2-2-2-2-2-0-0-0-0-0-0-0-0-4-4-4-4-4-4-4-4-0-0-0-0-2-2-2-2--|
D|--2-2-2-2-2-2-2-2-0-0-0-0-0-0-0-0----------------------------------|


[Post-Chorus]

e|-----------------------------------------|
B|-----------------------------------------|
G|--------7-7-7-----7-7-7-----7-7-7-----7--| x2
D|--2-2---x-x-x-----x-x-x-----x-x-x-----x--|
A|--2-2---5-5-5-----5-5-5-----5-5-5-----5--|
D|--2-2------------------------------------|


[Verse 2]
PM-------------|      PM-----------------|
e|---------------------|---------------------|
B|---------------------|---------------------|
G|---------------------|---------------------| x3
D|--------------5-5-5--|---------------------|
A|---------------------|---------------------|
D|--2-2-----2-0--------|--2-2-----2/5---0----|

PM-------------|      PM-----|
e|---------------------|------------------------|
B|---------------------|------------------------|
G|---------------------|------------------------|
D|--------------5-5-5--|------------------12\0--|
A|---------------------|------------------12\0--|
D|--2-2-----2-0--------|--2-2-------------12\0--|


(Rhythm Guitar)
e|-------------------|---------------------|
B|-------------------|---------------------|
G|-------------------|---------------------| x2
D|--2-2-----2-0------|--2-2-----2/5---0----|
A|--2-2-----2-0------|--2-2-----2/5---0----|
D|--2-2-----2-0------|--2-2-----2/5---0----|

(Lead Guitar)
Slowly ease off the palm mute near the end.
    PM----------------------------------------------------|
e|-----------------------------------------------------------------|
B|-----------------------------------------------------------------|
G|--9-9-9-9-7-7-7-7-4-4-4-4-4-4-4-4-2-4-4-2-4-4-2-4-4-2-4-4-2-4-2--|
D|-----------------------------------------------------------------|
A|-----------------------------------------------------------------|
D|-----------------------------------------------------------------|



[Pre-Chorus 2]

e|--------------------------------------------------------------------------|
B|--------------------------------------------------------------------------|
G|--5-5-5-5-5-5-5-5-7-7-7-7-9-9-9-9-12-12-12-12-12-12-12-12-14-14-14-14-16--|
D|--x-x-x-x-x-x-x-x-x-x-x-x-x-x-x-x-x--x--x--x--x--x--x--x--x--x--x--x--x---|
A|--3-3-3-3-3-3-3-3-5-5-5-5-7-7-7-7-10-10-10-10-10-10-10-10-12-12-12-12-14--|
D|--------------------------------------------------------------------------|

e|--------------7-7-7-|
B|--------------x-x-x-|
G|--------------5-5-5-|
D|--------------------|
A|--------------------|
D|--------------------|


[Chorus]

e|-------------------------------------------------------------------|
B|-------------------------------------------------------------------|
G|----------------------------------5-5-5-5-5-5-5-5-2-2-2-2-4-4-4-4--|
D|--2-2-2-2-2-2-2-2-0-0-0-0-0-0-0-0-5-5-5-5-5-5-5-5-2-2-2-2-4-4-4-4--|
A|--2-2-2-2-2-2-2-2-0-0-0-0-0-0-0-0-3-3-3-3-3-3-3-3-0-0-0-0-2-2-2-2--|
D|--2-2-2-2-2-2-2-2-0-0-0-0-0-0-0-0----------------------------------|

e|-------------------------------------------------------------------|
B|-------------------------------------------------------------------|
G|----------------------------------6-6-6-6-6-6-6-6-2-2-2-2-4-4-4-4--|
D|--2-2-2-2-2-2-2-2-0-0-0-0-0-0-0-0-6-6-6-6-6-6-6-6-2-2-2-2-4-4-4-4--|
A|--2-2-2-2-2-2-2-2-0-0-0-0-0-0-0-0-4-4-4-4-4-4-4-4-0-0-0-0-2-2-2-2--|
D|--2-2-2-2-2-2-2-2-0-0-0-0-0-0-0-0----------------------------------|


[Solo]

(Rhythm Guitar)
e|---------------------------------------------------|
B|---------------------------------------------------|
G|----------------------------------2-2-2-2-4-4-4-4--|
D|--2-2-2-2-2-2-2-2-0-0-0-0-0-0-0-0-2-2-2-2-4-4-4-4--|
A|--2-2-2-2-2-2-2-2-0-0-0-0-0-0-0-0-0-0-0-0-2-2-2-2--|
D|--2-2-2-2-2-2-2-2-0-0-0-0-0-0-0-0------------------|

(Lead Guitar)
e|--15-15-15-15-15-15-15-15-14-14-14-14-14-14-14-14-12-12-12-12-12-12-12-12-7-7-7-7-7-7-7-7--|
B|-------------------------------------------------------------------------------------------|
G|-------------------------------------------------------------------------------------------|
D|-------------------------------------------------------------------------------------------|
A|-------------------------------------------------------------------------------------------|
D|-------------------------------------------------------------------------------------------|

e|--15-15-15-15-15-15-15-15-14-14-14-14-14-14-14-14-12-12-12-12-12-12-12-12-19-19-19-19-19-19-19-19--|
B|---------------------------------------------------------------------------------------------------|
G|---------------------------------------------------------------------------------------------------|
D|---------------------------------------------------------------------------------------------------|
A|---------------------------------------------------------------------------------------------------|
D|---------------------------------------------------------------------------------------------------|

e|--15-15-15-15-15-15-15-15-14-14-14-14-14-14-14-14-17-17-17-17-17-17-17-17-15-15-15-15-15-15-15-15-17b--|
B|-------------------------------------------------------------------------------------------------------|
G|-------------------------------------------------------------------------------------------------------|
D|-------------------------------------------------------------------------------------------------------|
A|-------------------------------------------------------------------------------------------------------|
D|-------------------------------------------------------------------------------------------------------|


[Bridge]

e|-------------------|-------------------|---------------------|
B|-------------------|-------------------|---------------------|
G|--5-5-5-5-7-7-7-7--|-------------------|---------------------| x2
D|--5-5-5-5-7-7-7-7--|--2-2-----2-0------|--2-2-----2/5---0----|
A|--3-3-3-3-5-5-5-5--|--2-2-----2-0------|--2-2-----2/5---0----|
D|-------------------|--2-2-----2-0------|--2-2-----2/5---0----|

e|------------------------------------------|
B|------------------------------------------|
G|--5-5-5-5-2-2-2-2-5-5-5-5-2--2--2--2-2-2--|
D|--5-5-5-5-2-2-2-2-5-5-5-5-2--2--2--2-2-2--|
A|--3-3-3-3-0-0-0-0-3-3-3-3-0--0--0--0-0-0--|
D|------------------------------------------|

e|-------------------|---------------------|
B|-------------------|---------------------|
G|-------------------|---------------------| x4
D|--2-2-----2-0------|--2-2-----2/5---0----|
A|--2-2-----2-0------|--2-2-----2/5---0----|
D|--2-2-----2-0------|--2-2-----2/5---0----|


[Chorus]

e|--------------------|-------------------|---------------------------|
B|--------------------|-------------------|---------------------------|
G|--------------------|-------------------|--5--5--5--5---2--2--2--2--|
D|--2-----------------|--0----------------|--5--5--5--5---2--2--2--2--|
A|--2-----------------|--0----------------|--3--3--3--3---0--0--0--0--|
D|--2-----------------|--0----------------|---------------------------|

e|-------------------------------------------------------------------|
B|-------------------------------------------------------------------|
G|----------------------------------6-6-6-6-6-6-6-6-2-2-2-2-4-4-4-4--|
D|--2-2-2-2-2-2-2-2-0-0-0-0-0-0-0-0-6-6-6-6-6-6-6-6-2-2-2-2-4-4-4-4--|
A|--2-2-2-2-2-2-2-2-0-0-0-0-0-0-0-0-4-4-4-4-4-4-4-4-0-0-0-0-2-2-2-2--|
D|--2-2-2-2-2-2-2-2-0-0-0-0-0-0-0-0----------------------------------|


[Solo]

(Rhythm Guitar)
e|---------------------------------------------------|
B|---------------------------------------------------|
G|----------------------------------2-2-2-2-4-4-4-4--|
D|--2-2-2-2-2-2-2-2-0-0-0-0-0-0-0-0-2-2-2-2-4-4-4-4--|
A|--2-2-2-2-2-2-2-2-0-0-0-0-0-0-0-0-0-0-0-0-2-2-2-2--|
D|--2-2-2-2-2-2-2-2-0-0-0-0-0-0-0-0------------------|

(Lead Guitar)
e|--15-15-15-15-15-15-15-15-14-14-14-14-14-14-14-14-12-12-12-12-12-12-12-12-7-7-7-7-7-7-7-7--|
B|-------------------------------------------------------------------------------------------|
G|-------------------------------------------------------------------------------------------|
D|-------------------------------------------------------------------------------------------|
A|-------------------------------------------------------------------------------------------|
D|-------------------------------------------------------------------------------------------|

e|--15-15-15-15-15-15-15-15-14-14-14-14-14-14-14-14-12-12-12-12-12-12-12-12-19-19-19-19-19-19-19-19--|
B|---------------------------------------------------------------------------------------------------|
G|---------------------------------------------------------------------------------------------------|
D|---------------------------------------------------------------------------------------------------|
A|---------------------------------------------------------------------------------------------------|
D|---------------------------------------------------------------------------------------------------|

e|--15-15-15-15-15-15-15-15-14-14-14-14-14-14-14-14-17-17-17-17-17-17-17-17-15-15-15-15-15-15-15-15-17b--|
B|-------------------------------------------------------------------------------------------------------|
G|-------------------------------------------------------------------------------------------------------|
D|-------------------------------------------------------------------------------------------------------|
A|-------------------------------------------------------------------------------------------------------|
D|-------------------------------------------------------------------------------------------------------|


[Outro]

e|-----------------------------------------|
B|-----------------------------------------|
G|--------7-7-7-----7-7-7-----7-7-7-----7--| x3
D|--2-2---x-x-x-----x-x-x-----x-x-x-----x--|
A|--2-2---5-5-5-----5-5-5-----5-5-5-----5--|
D|--2-2------------------------------------|

e|-----------------------------------------|
B|-----------------------------------------|
G|--------7-7-7-----7-7-7-----7-7-7/9------|
D|--2-2---x-x-x-----x-x-x-----x-x-x/x------|
A|--2-2---5-5-5-----5-5-5-----5-5-5/7------|
D|--2-2------------------------------------|

************************************

| x   Dead note
| b   Bend
| /   Slide up
| \   Slide down
| PM  Palm mute

************************************

            
            
Suggest correction
Creating personal tab
Creating personal tab
You can edit any tab online and save it as your Personal.

You can edit, replace or remove any tab part or add personal notes – all changes will be seen only by you.

Personal tabs can be accessed anytime from any device, even offline.
Learn more »
comments
print report bad tab
14 comments total. Showing first comments.
0 reply
murallafacudiaz 922 Jun 07, 2016 05:05 AM, edited at 09:05 am

It's actually Drop C# - Seth Morrison's silver PRS is down tuned to Drop C#

0 reply
tdktkd 89 Jun 07, 2016 05:36 AM

I was for sure it was C#, but then I started playing and it didn't sound right. He might have changed tunings since they made those gear videos or he might tune them differently for international touring. It is Drop C for how this is tabbed out.

0 reply
joshuarg15 34 Jul 18, 2016 01:09 PM

This confused me at first. Why does the tuning above the tab say drop D (Which is the actual tuning this tab is in) but the bars say drop C? Good tab minus that. :)

guest
You may want to rate the tab now too:
select rating
Wanna post a correction for this tab? Suggest correction