Oops, an error
Loading. Please wait.

Believe Bass Tab

version 1
version 1

Whole song

Interactive

2,957 views 3 this week
1 commentread comment
1 2 3 4 5
accurate
x 6
add to favorites
launch autoscroll
font size
0
reset
guitar tuner
Tab Pro tools
  • play this tab
  • loop segment
  • change instrument
  • show fretboard
  • metronome
Autoscroll
slow
fast
+/-
esc
set tempo
stop
Contributor
Difficulty
novice
Come in at 0:20
G|-----------------------------|
D|-----------------------------|
A|-----------------------------|
E|-5~~~~--8~~~~--1~~~~--3~~~~--|
B|-----------------------------|

|------------------------------------------------------|
|------------------------------------------------------|
|------------------------------------------------------|
|-1-1-1-1-1-1-1-1-1-1-1-1-1-1-1-1-3-3-3-3-3-3-3-3-3----|
|------------------------------------------------------|

|-----------------------------------------------------------------|
|-----------------------------------------------------------------|
|-----------------------------------------------------------------|
|-5-5-5-5-1-1-1-1-8-8-8-8-3-3-3-3-1-1-1-1-5-5-5-5-3-3-3-3-3-3-3-3-|
|-----------------------------------------------------------------|

|---------------------------------------------------------|
|---------------------------------------------------------|
|---------------------------------------------------------|
|-5-5-5-5-1-1-1-1-8-8-8-8-3-3-3-3-8-8-8-8-5-5-5-5-3-3-3-3-|
|---------------------------------------------------------|

|-----------------------|
|-----------------------|
|-----------------------|
|-5-5-5-5-5-5-5-5-7-7-7-|
|-----------------------|

|---------------------------------|
|---------------------------------|
|---------------------------------|
|-5-5-5-5-1-1-1-1-8-8-8-8-3-3-3-3-|
|---------------------------------|
                                              x2
| |------------------------------------------| |
|o|------------------------------------------|o|
| |------------------------------------------| |
|o|-5--5----5-5--5-8-7---1-1-1----1-1--1-3-5-|o|
| |------------------------------------------| |

|-----------------------------------------------------------------|
|-----------------------------------------------------------------|
|-----------------------------------------------------------------|
|-5-5-5-5-5-5-5-5-8-8-8-8-8-8-8-8-1-1-1-1-1-1-1-1-3-3-3-3-3-3-3-3-|
|-----------------------------------------------------------------|

|------------------------------------------------------|
|------------------------------------------------------|
|------------------------------------------------------|
|-1-1-1-1-1-1-1-1-1-1-1-1-1-1-1-1-3-3-3-3-3-3-3-3-3----|
|------------------------------------------------------|

|-----------------------------------------------------------------|
|-----------------------------------------------------------------|
|-----------------------------------------------------------------|
|-5-5-5-5-1-1-1-1-8-8-8-8-3-3-3-3-1-1-1-1-5-5-5-5-3-3-3-3-3-3-3-3-|
|-----------------------------------------------------------------|

|---------------------------------------------------------|
|---------------------------------------------------------|
|---------------------------------------------------------|
|-5-5-5-5-1-1-1-1-8-8-8-8-3-3-3-3-8-8-8-8-5-5-5-5-3-3-3-3-|
|---------------------------------------------------------|

|---------------------------------|
|---------------------------------|
|---------------------------------|
|-5-5-5-5-5-5-5-5-7-7-7-7-7-7-7-7-|
|---------------------------------|

|-------------------------------------------------------------|
|-------------------------------------------------------------|
|-------------------------------------------------------------|
|-5-5-5-5-5---5-5-5-5-5---5-3---5-5-5-5-5---5-5-5-5-5---8-7-8-|
|-------------------------------------------------------------|

|--------------------------------------|
|--------------------------------------|
|--------------------------------------|
|-5-5-5-5-5-5-5-5-3-3-3-3-3-3-3-3-5~~~~|
|--------------------------------------|

Short Pause

|-------------------|
|-------------------|
|-------------------|
|-3-3-3-3-3-3-3-3-3-|
|-------------------|

|-----------------------------------------------------------------|
|-----------------------------------------------------------------|
|-----------------------------------------------------------------|
|-8-8-8-8-1-1-1-1-5-5-5-5-3-3-3-3-1-1-1-1-5-5-5-5-3-3-3-3-3-3-3-3-|
|-----------------------------------------------------------------|

|------------------------------------------------------------------------|
|------------------------------------------------------------------------|
|------------------------------------------------------------------------|
|-5-5-5-5-1-1-1-1-8-8-8-8-3-3-3-3-1-1-1-1-5-5-5-5-3---5---7---10---14-12-|
|------------------------------------------------------------------------|
                                                    
|-------------------------------------------------|
|-------------------------------------------------|
|-------------------------------------------------|
|-10-10-10-10-10-10-10-10-12-12-12-12-12-12-12-12-|
|-------------------------------------------------|

|--------------------------------------------------------|
|--------------------------------------------------------|
|--------------------------------------------------------|
|-10-10-10-10-10-10-10-10-12-12-12-12-12----12----13~~~~~|
|--------------------------------------------------------|

End.  Thanks For Viewing!
comments
print report bad tab
1 comment total.
0 reply
von_lidl wrote on April 21 2013, 04:35 am

It's a descent tab, thanks!

I want to post or [tab]
guest
You may want to rate the tab now too:
select rating
Please do not post tabs as comments. Select "correction" instead!