Oops, an error
Loading. Please wait.

Believe Tab

version 1
version 1

Intro

Whole song

Interactive

10,304 views 9 this week
1 commentread comment
1 2 3 4 5
accurate
x 5
add to favorites
launch autoscroll
font size
0
reset
how to read this tab
guitar tuner
Tab Pro tools
  • play this tab
  • loop segment
  • change instrument
  • show fretboard
  • metronome
×
Best way to learn
"Believe"
Autoscroll
slow
fast
+/-
esc
set tempo
stop
Contributor
Difficulty
novice
"Believe" By Skillet Intro Tab

|-------0--------|-----------------|----------------|-------------------|
|-------------3--|-3---------------|----------------|-------------------|
|----------------|-------5---4-----|-----2-----2--2-|-----4-(4)pb5r(4)--|
|---2------------|---2-------------|-3-----3--------|-3-----------------|
|-0---0---0-0----|-----0---0-------|----------------|-------------------|
|----------------|--------------3--|---3-----3------|---3---------------|
comments
print report bad tab
1 comment total.
0 reply
Vectris wrote on December 18 2009, 01:30 pm

Very close but in the first measure, you don't repeat the open A, instead you go back to E on the D string


|--------0-------|
|--------------3-|
|----------------|
|---2-------2----|
|-0---0---0------|
|----------------|


And also, based on the sound, he's not playing 5 and 4 in the second measure on the G string but playing 1 and 0 on the B string, and I'm not just saying that because it's easier, you can tell from the song that it's a crystal clear note.

And lastly don't forget to mention that you had it in Drop D, I'm not sure if that's necessary for the rest of the song but in standard tuning the 3s played on the E string should be 1s.

I want to post or [tab]
guest
You may want to rate the tab now too:
select rating
Please do not post tabs as comments. Select "correction" instead!