Oops, an error
Loading. Please wait.

Believe Tab

version 2
version 2

Whole song

Interactive

2,482 views 9 this week
1 commentread comment
1 2 3 4 5
accurate
x 7
add to favorites
launch autoscroll
font size
0
reset
how to read this tab
guitar tuner
Autoscroll
slow
fast
+/-
esc
set tempo
stop
Help us to improve Ultimate-Guitar.com Take our survey!
×
Author
Difficulty
Tuning
intermediate
D A D G B E
Hey! This is Believe by skillet. These tabs are quite accurate.
I have both acoustic and electric guitar tabs on this tab.
This song for the acoustic is standard tuning and for the electric I have in drop D. If 
have any
questions, please email:

irockutube101@gmail.com . also look up the 'irockutube101' into youtube to find my 
i will

hopefully soon will post me playing the song. But anyway, let me shut up and lets 
power
ballad :) lol


Into:

Acoustic Guitar
e|---------0---------------------------------------|
B|---------------3-3-----1---0------------------1b-|
G|-------------------2---------------2----2-2------|
D|-----2-----2-------------------3-----------3-----|
A|--0----0-----0-------0---0-----------------------|
E|-----------------------------1---1---1-1----2----|

Electric (No distortion)
e|------------------------------------------7-3--0-|
B|-------------------------------------------------|
G|-------------------------------------------------|
D|-------------------------------------------------|
A|-------------------------------------------------|
D|-------------------------------------------------|

---

Verse 1

Acoustic Guitar
e|---------0---------------------------------------|
B|---------------3-3-----1---0------------------1--|
G|-------------------2---------------2----2-2------|
D|-----2-----2-------------------3-----------3-----|
A|--0----0-----0-------0---0-----------------------|
E|-----------------------------1---1---1-1----2----|

Electric (No distortion)
e|------------------------------------------7-3--0-|
B|-------------------------------------------------|
G|-------------------------------------------------|
D|-------------------------------------------------|
A|-------------------------------------------------|
D|-------------------------------------------------|

---

Acoustic Guitar
e|---------0---------------------------------------|
B|---------------3-3-----1---0------------------1--|
G|-------------------2--------------2-----2-2------|
D|-----2-----2-------------------3-----------3-----|
A|--0----0-----0-------0---0-----------------------|
E|-----------------------------1---1---1-1----2----|

Electric (No distortion)
e|------------------------------------------7-3--0-|
B|-------------------------------------------------|
G|-------------------------------------------------|
D|-------------------------------------------------|
A|-------------------------------------------------|
D|-------------------------------------------------|

---

Pre-Chorus

Acoustic Guitar
e|--------0-----------0--------------------------------|
B|----------------------------------1-----------3------|
G|------------2-------------2---------2-----------4----|
D|----2-----2-----2-------2-----3-------3-----------5--|
A|--0---0-------3---3-----------------------5----------|
E|----------------------------1---1-------3---3--------|

e|--------------------------------|
B|--------1----------1----------3-|
G|-----------2----------2---------|
D|----3----3-----3----3-----5-----|
A|--------------------------------|
E|--1---1------1---1------3---3---|

Electric Guitar (with distortion) doesnt start until the second part of the acoustic 
^^

Palm mute, and add some color in your playing here.
e|---------------------------|
B|---------------------------|
G|---------------------------|
D|-3333333333333333-55555555-|
A|-3333333333333333-55555555-|
D|-3333333333333333-55555555-|

Chorus:
Acoustic Guitar
e|-------------------------------------------------------------------------|
B|-------------------------------------------------------------------------|
G|--22222222----------55555555-------------------22222222------------------|
D|--22222222-33333333-55555555-55555555-33333333-22222222-5555555555555555-|
A|--00000000-33333333-33333333-55555555-33333333-00000000-5555555555555555-|
E|-----------11111111----------33333333-11111111----------3333333333333333-|

e|-------------------------------------------------------------------------|
B|-------------------------------------------------------------------------|
G|--22222222----------55555555-------------------22222222------------------|
D|--22222222-33333333-55555555-55555555-33333333-22222222-55555555---------|
A|--00000000-33333333-33333333-55555555-33333333-00000000-55555555---------|
E|-----------11111111----------33333333-11111111----------33333333---------|

e|---------------------------|
B|---------------------------|
G|--2-2-2-2-2-2-2-2----------|
D|--2-2-2-2-2-2-2-2--2-2-2---|
A|--0-0-0-0-0-0-0-0--2-2-2---|
E|-------------------0-0-0---|

Electric Guitar (with distortion)
e|-------------------------------------------------------------------|
B|-------------------------------------------------------------------|
G|-------------------------------------------------------------------|
D|-7--3--2--5--3--7--5-3--7--3--2--5--3--7--5--0-0-0-0-0-0-0-0-2-2-2-|
A|-7--3--2--5--3--7--5-3--7--3--2--5--3--7--5--0-0-0-0-0-0-0-0-2-2-2-|
D|-7--3--2--5--3--7--5-3--7--3--2--5--3--7--5--0-0-0-0-0-0-0-0-2-2-2-|


"Post" Chorus

Acoustic Guitar
e|--------------------------------------|
B|--------------------------------------|
G|--22222222----------55555555----------|
D|--22222222-33333333-55555555-55555555-|
A|--00000000-33333333-33333333-55555555-|
E|-----------11111111----------33333333-|

Electric Guitar (Lead)
e|--12--12b--12--10--7--8--|
B|-------------------------|
G|-------------------------|
D|-------------------------|
A|-------------------------|
D|-------------------------|

Electric Guitar (Rhythm)
e|--------------|
B|--------5-----|
G|--------5-----|
D|--7--3--3--5--|
A|--7--3-----5--| (the bass takes the 7th fret into the 2nd verse as well as the Lead Guitar)
D|--7--3-----5--|

Verse 2


Acoustic Guitar
e|---------0---------------------------------------|
B|---------------3-3-----1---0------------------1--|
G|--------------------2--------------2----2-2------|
D|-----2-----2-------------------3-----------3-----| play 2x
A|--0----0-----0-------0---0-----------------------|
E|-----------------------------1---1---1-1----2----|

---

Pre-Chorus

Acoustic Guitar
e|--------0-----------0--------------------------------|
B|----------------------------------1-----------3------|
G|------------2-------------2---------2-----------4----|
D|----2-----2-----2-------2-----3-------3-----------5--|
A|--0---0-------3---3-----------------------5----------|
E|----------------------------1---1-------3---3--------|

e|--------------------------------|
B|--------1----------1----------3-|
G|-----------2----------2---------|
D|----3----3-----3----3-----5-----|
A|--------------------------------|
E|--1---1------1---1------3---3---|

Electric Guitar (with distortion) doesnt start until the second part of the acoustic 
^^

Palm mute, and add some color in your playing here.
e|-----------------------------------|
B|-----------------------------------|
G|-----------------------------------|
D|-0-0-0-0-0-0-0-0--2-2-2-2-2-2-2----|
A|-0-0-0-0-0-0-0-0--2-2-2-2-2-2-2----|
D|-0-0-0-0-0-0-0-0--2-2-2-2-2-2-2----|

Chorus:
[Same as above]


Bridge:
(No acoustic guitar)

Electric Guitar(distortion)
e|--------------------------------------------------------------|
B|--------------------------------------------------------------|
G|--------------------------------------------------------------|
D|--33333-33333-35-77777-77777-10-0-0-0-0-0-0-0-0-5--5--5--5-7--|
A|--33333-33333-35-77777-77777-10-0-0-0-0-0-0-0-0-5--5--5--5-7--|
D|--33333-33333-35-77777-77777-10-0-0-0-0-0-0-0-0-5--5--5--5-7--|

Solo:                     Play notes fast here
e|--13b-13-13-12-10-8---7--8--10--15--17--|
B|--------------------6-------------------|
G|----------------------------------------|
D|----------------------------------------|
A|----------------------------------------|
D|----------------------------------------|

PreChorus:
Acoustic Guitar
e|--------0-----------0--------------------------------|
B|----------------------------------1-----------3------|
G|------------2-------------2---------2-----------4----|
D|----2-----2-----2-------2-----3-------3-----------5--|
A|--0---0-------3---3-----------------------5----------|
E|----------------------------1---1-------3---3--------|

e|--------------------------------|
B|--------1----------1----------3-|
G|-----------2----------2---------|
D|----3----3-----3----3-----5-----|
A|--------------------------------|
E|--1---1------1---1------3---3---|

Electric Guitar:
e|---------------------------------|
B|---------------------------------|
G|---------------------------------|
D|------------------------55555555-|
A|------------------------55555555-|
D|------------------------55555555-|

Chorus:
Acoustic Guitar:
e|-------------------------------------------------------------------------|
B|-------------------------------------------------------------------------|
G|--55555555----------55555555-------------------22222222------------------|
D|--55555555-33333333-55555555-55555555-33333333-22222222-5555555555555555-|
A|--33333333-33333333-33333333-55555555-33333333-00000000-5555555555555555-|
E|-----------11111111----------33333333-11111111----------3333333333333333-|

e|----------------------------------------------------------|
B|----------------------------------------------------------|
G|--22222222----------55555555-------------------22222222---|
D|--22222222-33333333-55555555-55555555-33333333-22222222-5-|
A|--00000000-33333333-33333333-55555555-33333333-00000000-5-|
E|-----------11111111----------33333333-11111111----------3-|

e|----------------------------------------------------------------1-|
B|----------------------------------------------------------------1-|
G|--2-2-2-2-2-2-2-2-----------------2-2-2-2-2-2-2-2---------------2-|
D|--2-2-2-2-2-2-2-2-2-2-2-2-2-2-2-2-2-2-2-2-2-2-2-2-2-2-2-2-2--2--3-| END
A|--0-0-0-0-0-0-0-0-2-2-2-2-2-2-2-2-0-0-0-0-0-0-0-0-2-2-2-2-2--2--3-|
E|------------------0-0-0-0-0-0-0-0-----------------0-0-0-0-0--0--1-|


Electric Guitar:
e|-----------------------------------------------------|
B|-----------------------------------------------------|
G|-----------------------------------------------------|
D|--10--3--2--5--3--7--5--7--3--2--5--3--7-------------|
A|--10--3--2--5--3--7--5--7--3--2--5--3--7--------5-87-|
D|--10--3--2--5--3--7--5--7--3--2--5--3--7--5-7-9------|

e|-----------------------------------------------------------------|
B|-----------------------------------------------------------------|
G|-----------------------------------------------------------------|
D|--0-0-0-0-0-0-0-0-2-2-2-2-2-2-2-2-0-0-0-0-0-0-0-0-2-2-2-2-2--2-3-| END
A|--0-0-0-0-0-0-0-0-2-2-2-2-2-2-2-2-0-0-0-0-0-0-0-0-2-2-2-2-2--2-3-|
D|--0-0-0-0-0-0-0-0-2-2-2-2-2-2-2-2-0-0-0-0-0-0-0-0-2-2-2-2-2--2-3-|

There you are!! I hope this helps you!! :)
Suggest correction
comments
print report bad tab
1 comment total.
0 reply
GuitarWiz101 58 wrote on September 9 2010, 07:01 pm

**ok...so i have gotten bad ratings...can you guys PLEASE tell me why that the ratings are going down so i can make changes!!! thanks!**

guest
You may want to rate the tab now too:
select rating
Please do not post tabs as comments. Select "correction" instead!