Oops, an error
Loading. Please wait.

Best Kept Secret Tab

2,652 views 3 this week
no commentswrite comment
1 2 3 4 5
excellent!
x 2
add to favorites
launch autoscroll
font size
0
reset
how to read this tab
guitar tuner
Tab Pro tools
  • play this tab
  • loop segment
  • change instrument
  • show fretboard
  • metronome
Autoscroll
slow
fast
+/-
esc
set tempo
stop
Contributor
Difficulty
Tuning
novice
D A D G B E
-------------------------------------------------------------------------------
                             Best Kept Secret - Skillet
-------------------------------------------------------------------------------
Tabbed by:guitarplayer97
Email:(just comment it....duh.)

Tuning:D-a-d-g-b-e
(intro)
e|---------|
B|---------|
G|---5-----|
D|---5-----|
A|---3-----|
D|---------|X2 (play it when u hear it...)
Verse 1 (no guitar)

(Pre-Chorus)
e|---------------------------------------------------------------------------|
B|---------------------------------------------------------------------------|
G|---------------------------------------------------------------------------|
D|--7-7----7-7-7----7-5-5-----5-5-5-----7-7-7-7-7-7-7-7--5-5-5-5-5-5---------|
A|--7-7----7-7-7----7-5-5-----5-5-5-----7-7-7-7-7-7-7-7--5-5-5-5-5-5---------|
D|--7-7----7-7-7----7-5-5-----5-5-5-----7-7-7-7-7-7-7-7--5-5-5-5-5-5---------|

chorus
e|---------------------------------------------------------------------------|
B|---------------------------------------------------------------------------|
G|---------------------------------------------------------------------------|
D|--7-7-7-7-----------7-7-7-7-----------7-7-7-7-----------7-7-7-7------------|
A|--5-5-5-5--3-3-3-3--5-5-5-5--3-3-3-3--5-5-5-5--3-3-3-3--5-5-5-5--5-2--3----|
D|-----------3-3-3-3-----------3-3-3-3-----------3-3-3-3-----------5-2--3----|


e|---------------------------------------------------------------------------|
B|---------------------------------------------------------------------------|
G|---------------------------------------------------------------------------|
D|--7-7-7-7-----------7-7-7-7-----------7-7-7-7------------------------------|
A|--5-5-5-5--3-3-3-3--5-5-5-5--3-3-3-3--5-5-5-5---4-4-5-5-0-0-x-x-x-x--------|
D|-----------3-3-3-3-----------3-3-3-3------------4-4-5-5-0-0-x-x-x-x--------|

(post-chorus)
e|---------------------------------------------------------------------------|
B|---------------------------------------------------------------------------|
G|---------------------------------------------------------------------------|
D|--------------------------------------------------5-5-x-x-3-5-x-3-x-4------|
A|--8--8--x--x--8--8-x-x-x-x-------------------------------------------------|
D|--8--8--x--x--8--8-x-x-x-x---5-5-x-x-3-5-x-3-x-4/--------------------------|

(intro)x2

(verse 2 no guitar)

Pre-Chorus (it's a little different this time)
e|---------------------------------------------------------------------------|
B|---------------------------------------------------------------------------|
G|---------------------------------------------------------------------------|
D|---------------------------------------------------------------------------|
A|--7-7--7-7-7--7-5-5--5-5-5---7-7-7-7-7-7-7-7-5-5-5-5-5-5-5-5---------------|
D|--7-7--7-7-7--7-5-5--5-5-5---7-7-7-7-7-7-7-7-5-5-5-5-5-5-5-5---------------|


(chorus)

post chorus
e|------------------|
B|------------------|
G|------------------|
D|------------------|
A|--8--8--8-8-8-8---|
D|--8--8--8-8-8-8---|


(bridge- no guitar)


The "let it out" part
e|---------------------------------------|
B|---------------------------------------|
G|---------------------------------------|
D|---------------------------------------|
A|--5-5-5-3-5-5-3-3-4--5-5-5-3-5-5-3-3-4-|
E|--5-5-5-3-5-5-3-3-4--5-5-5-3-5-5-3-3-4-|

e|------------------------|
B|------------------------|
G|------------------------|
D|------------------------|
A|--5-5-x-x-3-5-x-3-x-4---|
D|--5-5-x-x-3-5-x-3-x-4---|x4

e|---------------------------------------|
B|---------------------------------------|
G|---------------------------------------|
D|---------------------------------------|
A|--5-5-5-3-5-5-3-3-4--5-5-5-3-5-5-3-3-4-|
E|--5-5-5-3-5-5-3-3-4--5-5-5-3-5-5-3-3-4-|x2


(intro)x4

Pre-Chorus (another change)
e|-----------------------------------------------------------|
B|-----------------------------------------------------------|
G|-----------------------------------------------------------|
D|-----------------------------------------------------------|
A|--7-7--7-7-7--7-5-5--5-5-5---7-7-7-7-7-7-7-7-5-5-5-5-5-----|
D|--7-7--7-7-7--7-5-5--5-5-5---7-7-7-7-7-7-7-7-5-5-5-5-5-----| (YEEEAAAAHHH!)

(Chorus)
(Post-chorus)
(Chorus)
(Post-Chorus)
(outro)
e|---------------------|
B|---------------------|
G|---------------------|
D|--5------------------|
A|--3--0--0-0--0-0-3-0-|
D|-----0--0-0--0-0-3-0-|x8

************************************

| /   slide up
| \   slide down
| h   hammer-on
| p   pull-off
| ~   vibrato
| +   harmonic
| x   Mute note
| b   Bend
| pb  Pre-bend
| br  Bend release
| pbr Pre-bend release
| brb Bend release bend

************************************
comments
We did not receive enough feedback on this tab! Please rate:
print report bad tab
1 2 3 4 5
I want to post or [tab]
guest
You may want to rate the tab now too:
select rating
Please do not post tabs as comments. Select "correction" instead!