Oops, an error
Loading. Please wait.

Better Than Drugs Bass Tab

version 1
version 1

Whole song

Interactive

8,011 views 6 this week
no commentswrite comment
1 2 3 4 5
2 more votes to show rating
add to favorites
launch autoscroll
font size
0
reset
guitar tuner
Autoscroll
slow
fast
+/-
esc
set tempo
stop
Help us to improve Ultimate-Guitar.com Take our survey!
×
Tuning: 5-string or B, E, A, D

Part one of the intro is only guitar, then bass comes in with

G|------------------------------------------------------------|
D|------------------------------------------------------------|
A|------------------------------------------------------------|X2
E|------------------------------------------------------------|
B|-3-0-0-3-0-0-2-0-0-5-0-0-8-0-7--3-0-0-3-0-0-2-0-0-5-0-0-3-0-|

Verse

|-------------------------------------|
|-------------------------------------|
|-7~~/2~~~5~~~7~~~2h5h7p5p2h5h7p5p2h5-|
|-------------------------------------|
|-------------------------------------|

|---------------------------------|
|---------------------------------|
|---------------------------------|
|---------------------------------|
|-8-8-8-8-8-8-8-8-8-8-8-8-8-8-8-8-|

|-------------------------------------------------|
|-------------------------------------------------|
|-------------------------------------------------|
|-------------------------------------------------|
|-10-10-10-10-10-10-10-10-10-10-10-10-10-10-10-10-|

|-------------------------------------------------|
|-------------------------------------------------|
|-------------------------------------------------|X2
|-------------------------------------------------|
|-12-12-12-12-12-12-12-12-12-12-12-12-12-12-12-12-|

|-------------------|
|-------------------|
|-------------------|
|-------------------|
|-5-5-5--5-5-5--5-5-|

Chorus

|---------------------------------------------|
|---------------------------------------------|
|---------------------------------------------|X2
|---------------------------------------------|
|-8-8-x-8~~~0-0-x-0~~~3-3-x-3-x-x-x-x-3-3-x-3-|

Post-Chorus

|------------------------------------------------------------|
|------------------------------------------------------------|
|------------------------------------------------------------|X2
|------------------------------------------------------------|
|-3-0-0-3-0-0-2-0-0-5-0-0-8-0-7--3-0-0-3-0-0-2-0-0-5-0-0-3-0-|

Verse

Bridge

|------------------------------------------|
|------------------------------------------|
|------------------------------------------|
|------------------------------------------|
|-8-8-x-8--10-10-x-10--0-2-8/7-0-0-2-8/7—0-|

|-------------------------------|
|-------------------------------|
|-------------------------------|
|-------------------------------|
|-8-8-x-8—10-10-x-10—0-2-8/7--0-|

Chorus X4

Outro

|------------------------------------------------------------|
|------------------------------------------------------------|
|------------------------------------------------------------|X2
|------------------------------------------------------------|
|-3-0-0-3-0-0-2-0-0-5-0-0-8-0-7--3-0-0-3-0-0-2-0-0-5-0-0-3-0-|

|-------|
|-------|
|-------|
|-------|
|-0-0-0-|
Suggest correction
Give kudos to tab author, rate the tab!
1 2 3 4 5
comments
print report bad tab
guest
You may want to rate the tab now too:
select rating
Wanna post a correction for this tab? Suggest correction