Oops, an error
Loading. Please wait.

Circus For A Psycho solo tab

version 2
version 2

Solo

Whole song

  • I wrote this based off another tab that did a horr... Show more

Interactive

by Skillet
387 views 6 this week
no commentswrite comment
1 2 3 4 5
3 more votes to show rating
add to favorites
×
Save as Personal and add changes to this tab that will be seen only by you. Learn more ›
×
You can save this tab as Personal to edit and correct it or add notes. All changes will be seen only by you. Learn more »
launch autoscroll
font size
0
reset
how to read this tab
guitar tuner
edit
Autoscroll
slow
fast
+/-
esc
set tempo
stop
-------------------------------------------------------------------------------
                             SONG NAME - Band Name
-------------------------------------------------------------------------------
Tabbed by:Josh Wright
E-mail:lilttlejw@yahoo.com

Everything is NOT in timed order,
You will have to listen to it to
see how long something is held or
Played. The X/2 are bends as well. This is a very fast pace solo so
beware. Hope you enjoy!

Tuning:D-A-D-G-B-D

 Pre-solo same as intro and lick
Through the song.
d|12-0-12-0-13-0-13-12-0-12-0-15-13-12-13-|
B|----------------------------------------|
G|----------------------------------------|
D|----------------------------------------|
A|----------------------------------------|
D|----------------------------------------|
(2times with fast picking)

d|15/2-17-17-19-20-19-17-19-17-----|
B|---------------------------------|
G|---------------------------------|
D|---------------------------------|
A|---------------------------------|
D|---------------------------------|

d|----------------------------------|
B|18-15----------------------17-15--|
G|------17-15-17/2-15--------17-15--|
D|-------------------17-15-17-------|
A|----------------------------------|
D|----------------------------------|

d|----------------------------------|
B|--------17-15---11-10----------10-|
G|--------17-15---------12-11-12----|
D|17-15-17-----17-------------------|
A|----------------------------------|
D-----------------------------------|


d|---------------------------------|
B|11-10----10-13-10-11-10-13-11-10-|
G|-----12-11-----------------------|
D|---------------------------------|
A|---------------------------------|
D|---------------------------------|

d|12-13-15-17-17-15-13-12-slide-8--|
B|---------------------------------|
G|---------------------------------|
D|---------------------------------|
A|---------------------------------|
D|---------------------------------|
                 ( *3)
d|---------(0-slide-12-------------|
B|11-slide-8-----------------------|
G|---------------------15-17-19----|
D|---------------------------------|
A|---------------------------------|
D|---------------------------------|

d|--------17-19-20-19-17-17-19-17--|
B|15-17-19-------------------------|
G|---------------------------------|
D|---------------------------------|
A|---------------------------------|
D|---------------------------------|

d|15-15-17-15-14-14-15-14-12-12-14-|
B|---------------------------------|
G|---------------------------------|
D|---------------------------------|
A|---------------------------------|
D|---------------------------------|

d|12-12-10-10-12-------------------|
B|---------------------------------|
G|---------------------------------|
D|---------------------------------|
A|---------------------------------|
D|---------------------------------|
************************************

            
            
Suggest correction
Creating personal tab
Creating personal tab
You can edit any tab online and save it as your Personal.

You can edit, replace or remove any tab part or add personal notes – all changes will be seen only by you.

Personal tabs can be accessed anytime from any device, even offline.
Learn more »
Give kudos to tab author, rate the tab!
1 2 3 4 5
comments
print report bad tab
guest
You may want to rate the tab now too:
select rating
Wanna post a correction for this tab? Suggest correction