Oops, an error
Loading. Please wait.

Collide Ukulele Chords

211 views 1 this week
no commentswrite comment
1 2 3 4 5
3 more votes to show rating
add to favorites
launch autoscroll
font size
0
reset
transpose
0
reset
display chords
guitar tuner
Autoscroll
slow
fast
+/-
esc
set tempo
stop
Help us to improve Ultimate-Guitar.com Take our survey!
×
Skillet
Collide
Collide

Intro: Violin
E-------------------------|
B------------------9-7----|
G--6-8--9-8--6-8--9---9/8-|
D-6----6----6-------------|
A-------------------------|
E-------------------------|

Intro:
E---------------------------------|
B---------------------------------|
G-6-6---------4-4-6-6-------------|
D-6-6-7-7-2-2-4-4-6-6-7-7-2-2-4-4-|
A-4-4-7-7-2-2-2-2-4-4-7-7-2-2-4-4-|
E-----5-5-0-0---------5-5-0-0-2-2-|

Verse:
E-9----9----9-99---9-99----9-99---9999-|
B--9----9-------9------9-------9-------|
G--------------------------------------|
D--------------------------------------|
A--------------------------------------|
E--------------------------------------|

Chorus:
E---------------------------------|
B---------------------------------|
G-6-6---------4-4-6-6-------------|
D-6-6-7-7-2-2-4-4-6-6-7-7-2-2-4-4-|
A-4-4-7-7-2-2-2-2-4-4-7-7-2-2-4-4-|
E-----5-5-0-0---------5-5-0-0-2-2-|

Verse:
E-9--9----9----9-99---9-99----9-99---9999-|
B--9--9----9-------9------9-------9-------|
G-----------------------------------------|
D-----------------------------------------|
A-----------------------------------------|
E-----------------------------------------|

Chorus:
E---------------------------------|
B---------------------------------|
G-6-6---------4-4-6-6-------------|
D-6-6-7-7-2-2-4-4-6-6-7-7-2-2-4-4-|
A-4-4-7-7-2-2-2-2-4-4-7-7-2-2-4-4-|
E-----5-5-0-0---------5-5-0-0-2-2-|

Break: Violin
E-12--11--12-12--14--12-12--17--16-16-12-11-12-|
B----------------------------------------------|
G----------------------------------------------|
D----------------------------------------------|
A----------------------------------------------|
E----------------------------------------------|

Break: Guitar played with intro violin played 8x
E------------------------------------------|
B------------------------------------------|
G------------------------------------------|
D-2--2-2-2-2--2-2-2-2--2--2-2-2-2--2-2-4-2-|
A-2--2-2-2-2--2-2-2-2--2--2-2-2-2--2-2-4-2-|
E-0--0-0-0-0--0-0-0-0--0--0-0-0-0--0-0-2-0-|
     * * *    * * * *     * * *    * *

Chorus:
E-------------------------------------|
B-------------------------------------|
G-6-6---------4-4-6-6-----------------|
D-6-6-7-7-2-2-4-4-6-6-7-7-2-2-4-4-4-4-|
A-4-4-7-7-2-2-2-2-4-4-7-7-2-2-4-4-4-4-|
E-----5-5-0-0---------5-5-0-0-2-2-2-2-|

Outro: along with violin break
E--
B--
G-6
D-6
A-4
E--

Legend:
/=slide down
*=palm mute

Questions?
Email at cory.roesch@yahoo.com
Suggest correction
Give kudos to tab author, rate the tab!
1 2 3 4 5
comments
print report bad tab
guest
You may want to rate the tab now too:
select rating
Wanna post a correction for this tab? Suggest correction