Oops, an error
Loading. Please wait.

Comatose Tab

version 1
version 1

Intro

Whole song

Interactive

31,628 views 6 this week
2 commentsread comments
1 2 3 4 5
accurate
x 5
add to favorites
launch autoscroll
font size
0
reset
how to read this tab
guitar tuner
Autoscroll
slow
fast
+/-
esc
set tempo
stop
Help us to improve Ultimate-Guitar.com Take our survey!
×
Author
Difficulty
novice
this is the intro on strings...strings are a pain in the A$$ to tab out btw...so heres 
best i could do...


e|---------15--15-14-15------17--17-15-14---------15--------17--15--14--|
B|----------------------------------------------------------------------|
G|----------------------------------------------------------------------|
D|----------------------------------------------------------------------|
A|-14--14----------------15-------------------14-----14-15--------------|
E|----------------------------------------------------------------------|

                 one octave
                 higher but
                 guitars dont
                 go that high
e|-----15-14-15---15-14-15----15-14-15---15-14-------------------------|
B|---------------------------------------------15----------------------|
G|------------------------------------------------------16--17--16-----|
D|---------------------------------------------------------------------|
A|-14-----------------------------------------------14-----------------|
E|---------------------------------------------------------------------|

yea this whole thing goes twice...and there is another guitar over it the second 
i think the one tab already has that part and im too lazy to tab it...so check that one urself....

well this is only my second tab so be easy on the critiques....

malakian19
Suggest correction
comments
print report bad tab
2 comments total.
0 reply
AwokenDEMON 2,639 wrote on April 17 2010, 11:15 am

Well there are two violins (One High one low) and I'm pretty sure theres a much easier way to play this... Oh and about tabbing violins, it actually is easy just don't think bout it. just pick a string and keep going up until you got the right note =D

0 reply
stewart.l.jacob 10 wrote on July 2 2015, 12:34 pm

STANDARD TUNING,
E 12-12-14-14-15-15-14-14-------17-17-15-15-14-14
B ------------------------15-15------------------
G -----------------------------------------------
D -----------------------------------------------
A -----------------------------------------------
E -----------------------------------------------

This is the best way i think it goes simple and fast.

guest
You may want to rate the tab now too:
select rating
Wanna post a correction for this tab? Suggest correction