Oops, an error
Loading. Please wait.

Come My Way Tab

467 views 2 this week
no commentswrite comment
1 2 3 4 5
please rate
add to favorites
launch autoscroll
font size
0
reset
how to read this tab
guitar tuner
Tab Pro tools
  • play this tab
  • loop segment
  • change instrument
  • show fretboard
  • metronome
×
Best way to learn
"Come My Way"
Autoscroll
slow
fast
+/-
esc
set tempo
stop
Difficulty
intermediate
Original Artist: Skillet *John L. Cooper*
Song: Come My Way
Record: Alien Youth 
CopyRight: 2001 Photon Music (BMI)
Band Cover:........

Intro X2 

Guitar 1:Thomas Zandavali 

Intro x2

E|--10---10---10---12---12---12|    |--10---10---10---12---12---12|
B|-----8----8----8-------------|    |-----8----8----8----8----8---|
G|-----------------------------| or |-----------------------------|
D|-----------------------------|    |-----------------------------|
A|-----------------------------|    |-----------------------------| 
E|-----------------------------|    |-----------------------------|          

E|--8---8---8---7---7---7|    |--8---8---8---7---7---7|
B|----8---8---8----------|    |----8---8---8---8---8--|
G|-----------------------| or |-----------------------|
D|-----------------------|    |-----------------------|                            
A|-----------------------|    |-----------------------| 
E|-----------------------|    |-----------------------|

E|--10---10---10---12---12---12|
B|-----8----8----8-------------|
G|-----------------------------| or " " " " " " " 
D|-----------------------------|
A|-----------------------------|
E|-----------------------------|

E|--8---8---8---8---8---8|
B|----8---8---8----------|
G|-----------------------| or " " " " " " "
D|-----------------------|
A|-----------------------|
E|-----------------------|

X2  

E|--8---8---8---8---8---8----7H8-8|
B|----8---8---8------------------8|
G|--------------------------------|
D|--------------------------------|
A|--------------------------------|
E|--------------------------------|

Intro

Guitar 3

X2

E|-----------------------------|
B|-----------------------------|
G|--5--------------------------|
D|--5--------7-------5--------3|
A|--3--------7-------5--------3|
E|-----------5-------3--------1|

Intro

Guitar 2:Francesco Caputo

X2

E|--0--------3-------3--------3-----|
B|--1--------1-------1--------0-----|
G|--0--------2-------2--------0-----|
D|--2--------2-------3--------0-----|
A|--3--------0-------X--------2-----|
E|--X--------X-------X--------3-----|

Intro

Guitar 4

X2

E|--7---7---7---8---8---8|--5---5---5---4---4---4|
B|----5---5---5---5---5--|----5---5---5---5---5--|
G|-----------------------|-----------------------|
D|-----------------------|-----------------------|
A|-----------------------|-----------------------|
E|-----------------------|-----------------------|

E|--7---7---7---8---8---8|--5---5---5---5---5---5|
B|----5---5---5---5---5--|-----------------------|
G|-----------------------|----5---5---5---5---5--|
D|-----------------------|-----------------------|
A|-----------------------|-----------------------|
E|-----------------------|-----------------------|

Verse 1

Guitar 1 

X2

E|--------2-----0-----0-----1-----3------1-----3|
B|--------1-----1-----0-----1-----0------1-----0|
G|--------0-----0-----0-----2-----0------2-----0|
D|-----5--------2-------------------------------|
A|--3-------3---------2-----3------------3-----2|
E|--------------------------------3-------------|

Verse 1

Guitar 2

x2

E|-0-------0------0-------0------1-------3|
B|-3-------0------1-------0------1-------0|
G|-0-------0------2-------0------2-------0|
D|-2-------2------2-------0------3-------0|
A|-3-------3------0-------2------3-------2|
E|-x-------x------x-------0------1-------3|

Verse 1

Guitar 3 

x2

E|------------|------------|-----------|----------|-----------|----------|
B|------------|------------|-----------|----------|-----------|----------|
G|--4---------|--4---------|-----------|----------|-----------|----------|
D|--4---------|--4---------|--7--------|--2-------|--3--------|--5-------|
A|--2---------|--2---------|--7--------|--2-------|--3--------|--5-------|
E|------------|------------|--5--------|--0-------|--1--------|--3-------|

Chorus

Guitar 1= Verse 1 + E|--7-8-7---------3|
                    B|----------------3|
                    G|----------------0| X2
                    D|-----------------| 
                    A|------------3----|
                    E|-----------------|

Chorus

Guitar 2

x2

E|--0----------|--3----------|--0--------|--3----------|--3-----3--|
B|--1----------|--1----------|--0--------|--1----------|--1-----1--|
G|--0----------|--2----------|--0--------|--2----------|--2-----2--|
D|--2----------|--2----------|--0--------|--3----------|--2-----2--|
A|--3----------|--0----------|--2--------|--x----------|--0-----0--|
E|--X----------|--X----------|--0--------|--x----------|--X-----X--|

Chorus

Guitar 3

X2

E|--0------|  |--3-----|  |--0------|  |--3-------|
B|--1------|  |--1-----|  |--0------|  |--1-------|
G|--0------|X6|--2-----|X6|--0------|X6|--2-------|
D|---------|  |--------|  |---------|  |----------|
A|----3----|  |----2---|  |----2----|  |----3-----|
E|---------|  |--------|  |---------|  |----------|
comments
We did not receive enough feedback on this tab! Please rate:
print report bad tab
1 2 3 4 5
I want to post or [tab]
guest
You may want to rate the tab now too:
select rating
Please do not post tabs as comments. Select "correction" instead!