Oops, an error
Loading. Please wait.

Cycle Down Tab

3,820 views 1 this week
3 commentsread comments
1 2 3 4 5
accurate
x 6
add to favorites
launch autoscroll
font size
0
reset
how to read this tab
guitar tuner
Autoscroll
slow
fast
+/-
esc
set tempo
stop
Help us to improve Ultimate-Guitar.com Take our survey!
×
Author
-------------------------------------------------------------------------------
                             Cycle Down - Skillet
-------------------------------------------------------------------------------
Tabbed by:Cobra Starship
Email:happyboy04@hotmail.com
This is my first tab so don't go too hard on me

Tuning:drop D For those of you who don't know what drop d is, you tune the top thickest 
to sound like the d string 4th from the bottom

Part I- All notes on the E string are palm muted
You play this part 4 times

e|---------------------------------------------------------------------------|
B|---------------------------------------------------------------------------|
G|---------------------------------------------------------------------------|
D|-0---------2----------3-----------33-00-22---------------------------------|
A|-------------------------------------------33------------------------------|
E|----0000------0000---------0000--------------------------------------------|
     Part II Played with a chord fingering
You Play this part 6 times
e|---------------------------------------------------------------------------|
B|---------------------------------------------------------------------------|
G|---------------------------------------------0-----------------------------|
D|------0----------3----------------3----------------------------------------|
A|---0----------5-------5---------3---------3------3-------------------------|
E|-0--------5-------------------3---------2----------------------------------|
  Part III- Everything on the E string is palm muted
You play this part 3 times
e|---------------------------------------------------------------------------|
B|---------------------------------------------------------------------------|
G|---------------------------------------------------------------------------|
D|---------------------3-----------------------------------------------------|
A|-------------------------3-3-----------------------------------------------|
E|000--555--555--333---------------------------------------------------------|
  Part IIII- It's pretty musch the same as Part III but with a different ending
You Play this part only once
e|---------------------------------------------------------------------------|
B|---------------------------------------------------------------------------|
G|-----------------------------2-0-------------------------------------------|
D|---------------------3-------------3-5-------------------------------------|
A|-------------------------3-------------------------------------------------|
E|-000--555--555--333--------------------------------------------------------|
  Part V You play this part 2 times
e|---------------------------------------------------------------------------|
B|---------------------------------------------------------------------------|
G|---------------------------------------------------------------------------|
D|-0--0--0--3--0--333--03--5353--10--10--10--10--10--------------------------|
A|-0--0--0--3--0--333--03--5353---8---8---8---8---8--------------------------|
E|-0--0--0--3--0--333--03--5353---8---8---8---8---8--------------------------|
  After Part V you play Part I-V again and then you play Part VI

This is part VI you play it 2 times over
e|---------------------------------------------------------------------------|
B|-------------6--------5----------------------------------------------------|
G|-------------X--------X----------------------------------------------------|
D|-10----------3-X10----2----------------------------------------------------|
A|--8-X20------0--------0----------------------------------------------------|
E|--8----------0--------0----------------------------------------------------|

After that you play Part V again and then you play part one and thats the end of the 
 Hope this tab works for you.  Check out www.youtube.com/whoozo


| /  slide up
| \  slide down
| h  hammer-on
| p  pull-off
| ~  vibrato
| +  harmonic
| x  Mute note
===============================================================================
Suggest correction
comments
print report bad tab
3 comments total.
0 reply
guitar4life97 99 wrote on November 11 2009, 03:07 pm

WOW! i play it so much different, i play drop Db like this,

int;
Gb--7----------9---------10-------107-9-5---
Db--x----------x---------x--------x-x-x-x---
Ab--5----------7---------8--------8-5-7-3---
Db------0-0-0-----0-0-0-----0-0-0-----------x2

verse,
Db-------3-----3------3----5----------------
Ab-----0----0-------3-----5-----------------
Db--0-----0-----0-3-----5----5--------------

verse
Gb---(7)------(7)--------------(7)------(7)--(5)-(7)--(7)-
Db--------------------------------------------------(7)---
Ab--------------------------------------------
Db-xxx---do-this-20-times-and-do-the-harmonics-at-the-same-
time-when-they-happen.

chorus
Db-0-3-5-8-0-3-5-10-
Ab-0-3-5-8-0-3-5-10-
Db-0-3-5-8-0-3-5-10- (I'm not sure if this is right)

bridge
Eb-22-22-22-22--17--17--17--------------
Bb--------------22--22--22--------------
Gb--------------------------------------
Db-----------------------------10-9-10-9
Ab------------------------------x-x-x-x-
Db------------------------------8-7-8-7-(somthin like that)

bridge

Db-8-----------0----------
Ab-8-----------0----------
Db-8-----------0----------
8=20 times 0=10 times

pre-chorus
Db-0-3-5-8 (switch voice 2 somthin more quiet)
Ab-0-3-5-8
Db-0-3-5-8 (constant strummimng)

0 reply
Mr. James 42 wrote on December 8 2009, 10:13 pm

if you're going to go through all that just make a new tab.

+1 reply
Flatline222 73 wrote on January 11 2010, 07:58 pm

Good advice. I was gonna say, it was in drop Db, but good tabs!
Praise God through rock!

guest
You may want to rate the tab now too:
select rating
Wanna post a correction for this tab? Suggest correction