Oops, an error
Loading. Please wait.

Dead Inside Bass Tab

version 1
version 1

Whole song

Interactive

2,153 views 3 this week
no commentswrite comment
1 2 3 4 5
please rate
add to favorites
launch autoscroll
font size
0
reset
guitar tuner
Autoscroll
slow
fast
+/-
esc
set tempo
stop
Help us to improve Ultimate-Guitar.com Take our survey!
×
Contributor
Dead Inside
Skillet
Bass tab

Tuning: 5-String or tune down to B, E, A, D

Intro (0:06)
G:|----------------------|
D:|----------------------| 
A:|----------------------| x4
E:|---------------8-7-5--|
B:|--0-0--2-2-0-0--------|

Verse (0:18)
G:|--------------------|--------------------|------------------|
D:|--------------------|--------------------|------------------| 
A:|--------------------|--------------------|------------------| x2
E:|--------------------|--------------------|------------------|
B:|--0-0--0--0-00-0/12-|--0-0--0--0-00-0/12-|-5-5-5-5-8-8-8-8--|
      
G:|-------------------|
D:|-------------------|
A:|-------------------|
E:|-------------------|
B:|--0-0--2-2--3-3-7~-|

Chorus (0:39)
G:|-------------|-----------|------------|---------------|
D:|-------------|-----------|------------|---------------|
A:|-------------|-----------|------------|---------------|
E:|-------------|-----3-3-3-|------------|---------------|
B:|--8-8~-0-0-0-|-3-3~------|-8-8~-0-0-0-|-7-7-0-0-00-0--|

G:|-------------|-----------|------------|-----------------|
D:|-------------|-----------|------------|-----------------|
A:|-------------|-----------|------------|-----------------|
E:|-------------|-----3-3-3-|------------|-----------------|
B:|--8-8~-0-0-0-|-3-3~------|-5-5---0-0--|-3-3-3-3-2-2-2-2-|

Post-chorus (1:03)
G:|---------------|
D:|---------------|
A:|---------------|
E:|---------------|
B:|--0--0-0--0-0--|

Repeat Verse (1:06)
G:|--------------------|--------------------|------------------|
D:|--------------------|--------------------|------------------| 
A:|--------------------|--------------------|------------------| x2
E:|--------------------|--------------------|------------------|
B:|--0-0--0--0-00-0/12-|--0-0--0--0-00-0/12-|-5-5-5-5-8-8-8-8--|
      
G:|-------------------|
D:|-------------------|
A:|-------------------|
E:|-------------------|
B:|--0-0--2-2--3-3-7~-|

Repeat Chorus (1:27)
G:|-------------|-----------|------------|---------------|
D:|-------------|-----------|------------|---------------|
A:|-------------|-----------|------------|---------------|
E:|-------------|-----3-3-3-|------------|---------------|
B:|--8-8~-0-0-0-|-3-3~------|-8-8~-0-0-0-|-7-7-0-0-00-0--|

G:|-------------|-----------|------------|-----------------|
D:|-------------|-----------|------------|-----------------|
A:|-------------|-----------|------------|-----------------|
E:|-------------|-----3-3-3-|------------|-----------------|
B:|--8-8~-0-0-0-|-3-3~------|-5-5---0-0--|-3-3-3-3-2-2-2-2-|

Bridge (1:51)
G:|---------------|
D:|---------------| 
A:|---------------| x2
E:|---------------|
B:|--0--0-0--0-0--|

G:|--------------------------------|
D:|--------------------------------| 
A:|-------------------5------------| x4
E:|--5--3-5---5-7---3---3---8-7-5--|
B:|--------------------------------|

G:|------------------|------------------|
D:|------------------|------------------|
A:|------------------|------------------|
E:|------------------|---------3-3-3-3--|
B:|--5-5-5-5-0-0-0-0-|-3-3-3-3----------|

G:|------------------|-----------------------|
D:|------------------|-----------------------|
A:|------------------|-----------------------|
E:|------------------|-----------------3333--|
B:|--5-5-5-5-0-0-0-0-|--0000-2222-3333-------|
                      
Chorus (2:21)
G:|-------------|-----------|------------|-------------|
D:|-------------|-----------|------------|-------------|
A:|-------------|-----------|------------|-------------|
E:|-------------|-----3-3-3-|------------|-------------|
B:|--8-8~-0-0-0-|-3-3~------|-8-8~-0-0-0-|-7777-0000-/-|

G:|-------------|-----------|------------|-----------------|
D:|-------------|-----------|------------|-----------------|
A:|-------------|-----------|------------|-----------------|
E:|-------------|-----3-3-3-|------------|-----------------|
B:|--8-8~-0-0-0-|-3-3~------|-5-5---0-0--|-3-3-3-3-2-2-2-2-|

G:|------------|-----------------|
D:|------------|-----------------|
A:|------------|-----------------|
E:|------------|-----------------|
B:|-5-5---0-0--|-3-3-3-3-2-2-2-2-|

Outro (2:51)
G:|---------------|
D:|---------------|
A:|---------------|
E:|---------------|
B:|--0--0-0--0-0--|

This Bonus Song Rocks! Hope you guys like it!!!!
Suggest correction What's this?
You can suggest a correction to this tab. Community and Mods will review your correction and vote to approve or reject it.
comments
We did not receive enough feedback on this tab! Please rate:
print report bad tab
1 2 3 4 5
I want to post or [tab]
guest
You may want to rate the tab now too:
select rating
Please do not post tabs as comments. Select "correction" instead!