Oops, an error
Loading. Please wait.

Everything Goes Black tab

by Skillet
737 views 12 this week
no commentswrite comment
1 2 3 4 5
2 more votes to show rating
add to favorites
×
Save as Personal and add changes to this tab that will be seen only by you. Learn more ›
×
You can save this tab as Personal to edit and correct it or add notes. All changes will be seen only by you. Learn more »
launch autoscroll
font size
0
reset
how to read this tab
guitar tuner
edit
Autoscroll
slow
fast
+/-
esc
set tempo
stop
-----------------------------------------------------------------------------------------------------------
                                  Everything Goes Black - Skillet
-----------------------------------------------------------------------------------------------------------
Tabbed by: PUNC4KE

Guitar 1 tuning: D#G#C#F#A#d#
Guitar 2 tuning: C#G#C#F#A#d#

   VERSE 1
   Guitar 1
d#|----------------------------------------------------------------|
A#|-----1---0h1--------3---3-1---------3---3-1---1-----3---3-1---1-|
F#|--------------2-----------------------------------0-------------| Play
C#|---2--------------2---------------------------------------------|  x2
G#|-0-----0--------0-----0-----0-2-3-----3-----3---3-----3-----3---|
D#|----------------------------------------------------------------|

d#|---------1---------------0-----------------------------------|
A#|-----3-----3---3-----1-----1---1---------3---------------3---|
F#|---2---2-----2---------2-----2-------0-----0---0-----0-----0-| 
C#|-0-----------------2---------------0---0-----0-----0---0-----| 
G#|-----------------0-------------------------------------------|
D#|---------------------------------3---------------3-----------|

d#|---------1---------------0---------------0---------------------------------------|
A#|-----3-----3---3-----1-----1---1-----1-----1---1---------3---------------3-------|
F#|---2---2-----2---------2-----2-----0---0-----0-------0-----0---0-----0-----0---0-| 
C#|-0-----------------2-------------------------------0---0-----0-----0---0-----0---| 
G#|-----------------0---------------3-----------------------------------------------|
D#|-------------------------------------------------3---------------3---------------|

   CHORUS 1
   Guitar 1
d#|-------------------------0-------|
A#|-----------------------1---1-----|
F#|-----2-------0-------2-------2---| Play
C#|---3---3---0---0---2-----------2-|  x3
G#|-----------------0---------------|
D#|-1-------3-----------------------|

d#|--------------------------0---------------0-------------------------------0-----------------------|
A#|----------1-----------------0---------------0---------------------------1---1---------------------|
F#|------2-----2---2-----0-------0-------0-------0-------2-------0-------2-------2-------2-------0---|
C#|----3---3-----3-----2---2-------2---2---2-------2---3---3---0---0---2-----------2---3---3---0---0-|
G#|------------------------------------------------------------------0-------------------------------|
D#|-1----------------0---------------0---------------1-------3-----------------------1-------3-------|


d#|-0--------19-------|
A#|-1----0h1----20----|
F#|-2--------------19-|
C#|-2-----------------|
G#|-0-----------------|
D#|-------------------|


   VERSE 2
   Guitar 1
d#|----------------------------------------------------------------|
A#|-----1---0h1--------3---3-1---------3---3-1---1-----3---3-1---1-|
F#|--------------2-----------------------------------0-------------| Play
C#|---2--------------2---------------------------------------------|  x2
G#|-0-----0--------0-----0-----0-2-3-----3-----3---3-----3-----3---|
D#|----------------------------------------------------------------|

d#|---------1---------------0-----------------------------------|
A#|-----3-----3---3-----1-----1---1---------3---------------3---|
F#|---2---2-----2---------2-----2-------0-----0---0-----0-----0-| 
C#|-0-----------------2---------------0---0-----0-----0---0-----| 
G#|-----------------0-------------------------------------------|
D#|---------------------------------3---------------3-----------|

d#|---------1---------------0---------------0---------------------------------------|
A#|-----3-----3---3-----1-----1---1-----1-----1---1---------3-----------------------|
F#|---2---2-----2---------2-----2-----0---0-----0-------0-----0---0-----------------| 
C#|-0-----------------2-------------------------------0---0-----0-------------------| 
G#|-----------------0---------------3-----------------------------------------------|
D#|-------------------------------------------------3-------------------------------|

   CHORUS 2
   Guitar 1
d#|-------------------------0-------|
A#|-----------------------1---1-----|
F#|-----2-------0-------2-------2---| Play
C#|---3---3---0---0---2-----------2-|  x3
G#|-----------------0---------------|
D#|-1-------3-----------------------|

d#|--------------------------0---------------0-------------------------------0------------------------0-|
A#|----------1-----------------0---------------0---------------------------1---1----------------------1-|
F#|------2-----2---2-----0-------0-------0-------0-------2-------0-------2-------2-------2-------0----2-|
C#|----3---3-----3-----2---2-------2---2---2-------2---3---3---0---0---2-----------2---3---3---0---0--2-|
G#|------------------------------------------------------------------0--------------------------------0-|
D#|-1----------------0---------------0---------------1-------3-----------------------1-------3----------|

   Guitar 2
d#|-------------------------------------------------------------------------------------------------------|
A#|-------------------------------------------------------------------------------------------------------|
F#|-------------------------------------------------------------------------------------------------------|
C#|----------------------2-2-2-2-2-2-2-2-------2-2-2-2-2-2-2-2-------2-2-2-2-2-2-2-2----------------------|
G#|-5-5-5-5-5-5-5--3--5--0-0-0-0-0-0-0-0-3--5--0-0-0-0-0-0-0-0-3--5--0-0-0-0-0-0-0-0-3----2-2-2-2-2-2-2-2-|
C#|-5-5-5-5-5-5-5--3--5------------------3--5------------------3--5------------------3----2-2-2-2-2-2-2-2-|

d#|-----------------------------------------------------------------------------|
A#|-----------------------------------------------------------------------------|
F#|-----------------------------------------------------------------------------|
C#|-----------------------2-2-2-2-2-2-2-2-------2-2-2-2-2-2-2-2-2-2-2-2-2-2-2-2-|
G#|-2-2-2-2-2-2-2-2-3--5--0-0-0-0-0-0-0-0-3--5--0-0-0-0-0-0-0-0-0-0-0-0-0-0-0-0-|
C#|-2-2-2-2-2-2-2-2-3--5------------------3--5----------------------------------|

   BRIDGE
   Guitar 1
d#|-8-8-------------|     ‾‾\
A#|---------6-6-----|        |
F#|-----9-9-----9-9-| Play   |
C#|-----------------|  x4    |
G#|-----------------|        |
D#|-----------------|        |
                             \ Play
d#|-----------------|        /  x2
A#|-8-8-----6-6-----|        |
F#|-----9-9-----9-9-| Play   |
C#|-----------------|  x4    |
G#|-----------------|        |
D#|-----------------|      __/

   Guitar 2
d#|-----------------------------------------------------------------------------------|
A#|-----------------------------------------------------------------------------------|
F#|-----------------------------------------------------------------------------------|
C#|---------2-------5------------------------2-------5--------------------------------|
G#|-0-------0-------3-------5-------0--------0-------3-------2-------2-2-2-2--2-2-2-2-|
C#|-0-----------------------5-------0------------------------2-------2-2-2-2--2-2-2-2-|

   CHORUS 3
   Guitar 1
d#|-------------------------0-------|
A#|-----------------------1---1-----|
F#|-----2-------0-------2-------2---| Play
C#|---3---3---0---0---2-----------2-|  x3
G#|-----------------0---------------|
D#|-1-------3-----------------------|

d#|--------------------------0---------------0-------------------------------0------------------------0-|
A#|----------1-----------------0---------------0---------------------------1---1----------------------1-|
F#|------2-----2---2-----0-------0-------0-------0-------2-------0-------2-------2-------2-------0----2-|
C#|----3---3-----3-----2---2-------2---2---2-------2---3---3---0---0---2-----------2---3---3---0---0--2-|
G#|------------------------------------------------------------------0--------------------------------0-|
D#|-1----------------0---------------0---------------1-------3-----------------------1-------3----------|

   Guitar 2
d#|--------------------------------------------------------------------------------------------------------|
A#|--------------------------------------------------------------------------------------------------------|
F#|--------------------------------------------------------------------------------------------------------|
C#|-------2-2-2-2-2-2-2-2-------2-2-2-2-2-2-2-2-------2-2-2-2-2-2-2-2--------------------------------------|
G#|-3--5--0-0-0-0-0-0-0-0-3--5--0-0-0-0-0-0-0-0-3--5--0-0-0-0-0-0-0-0-3----2-2-2-2-2-2-2-2-2-2-2-2-2-2-2-2-|
C#|-3--5------------------3--5------------------3--5------------------3----2-2-2-2-2-2-2-2-2-2-2-2-2-2-2-2-|

d#|----------------------------------------------------------------|
A#|----------------------------------------------------------------|
F#|----------------------------------------------------------------|
C#|-------2-------------------2-------------------2--------------2-|
G#|-3--5--0-------------3--5--0-------------3--5--0--------3--5--0-|
C#|-3--5----------------3--5----------------3--5-----------3--5----|

            
            
Suggest correction
Creating personal tab
Creating personal tab
You can edit any tab online and save it as your Personal.

You can edit, replace or remove any tab part or add personal notes – all changes will be seen only by you.

Personal tabs can be accessed anytime from any device, even offline.
Learn more »
Give kudos to tab author, rate the tab!
1 2 3 4 5
comments
print report bad tab
guest
You may want to rate the tab now too:
select rating
Wanna post a correction for this tab? Suggest correction