Oops, an error
Loading. Please wait.

Falling Inside The Black tab

version 3
version 3

Whole song

Interactive

by Skillet
22,611 views 42 this week
1 commentread comment
1 2 3 4 5
x 23
add to favorites
×
Save as Personal and add changes to this tab that will be seen only by you. Learn more ›
×
You can save this tab as Personal to edit and correct it or add notes. All changes will be seen only by you. Learn more »
launch autoscroll
font size
0
reset
how to read this tab
guitar tuner
edit
Autoscroll
slow
fast
+/-
esc
set tempo
stop
This is a little different than the previous tabs that have been submitted for this 
 Hopefully, I have sewn up any inaccuracies, and if it is your opinion that I have created 
ones, please critique.

INTRO

[GUITAR 1]
E|-0-8-7----0-2-3----0-8-7----0-10-8----|
B|--------------------------------------|
G|--------------------------------------|
D|--------------------------------------|
A|--------------------------------------|
D|--------------------------------------|


Then

[GUITAR 1]
E|0-8-7-----0-2-3-----0-8-7-----3-2-0---|
B|--------------------------------------|
G|--------------------------------------|
D|--------------------------------------|
A|--------------------------------------|
D|--------------------------------------|

[GUITAR 2]
E|--------------------------------------]
B|--------------------------------------]
G|--------------------------------------]
D|2-2-------2-2-------2-2-------2--/2---]
A|--------------------------------------]
D|----2-2h3-----2-2h3-----2-2h3---------]


Then

[GUITAR 1]
E|-0-8-7----0-2-3----0-8-7----0-10-8----|
B|--------------------------------------|
G|--------------------------------------|
D|--------------------------------------|
A|--------------------------------------|
D|--------------------------------------|


E|0-8-7-----0-2-3-----0-8-7-----3-2-0---|
B|--------------------------------------|
G|--------------------------------------|
D|--------------------------------------|
A|--------------------------------------|
D|--------------------------------------|


[GUITAR TWO]
E|--------------------------------------]
B|--------------------------------------]
G|--------------------------------------]
D|2-2-2-2h3-2-2-2-2h3-2-2-2-2h3-x2-2/0--]
A|----2-2h3-----2-2h3-----2-2h3-x2-2/0--]
D|----2-2h3-----2-2h3-----2-2h3-x2-2/0--]

E|--------------------------------------]
B|--------------------------------------]
G|--------------------------------------]
D|2-2-2-2h3-2-2-2-2h3-2-2-2-2h3-x5-5/0--]
A|----2-2h3-----2-2h3-----2-2h3-x5-5/0--]
D|----2-2h3-----2-2h3-----2-2h3-x5-5/0--]


VERSE 1

Keyboard, Then

[GUITAR ONE]
E|----------|
B|----------|
G|----------|
D|-0--0-0-2-|
A|-0--0-0-2-|
D|-0--0-0-2-|

E|-0-8-7----0-2-3----0-8-7----0-10-8----|
B|--------------------------------------|
G|--------------------------------------|
D|--------------------------------------|
A|--------------------------------------|
D|--------------------------------------|


E|0-8-7-----0-2-3-----|
B|--------------------|
G|--------------------|
D|--------------------|
A|--------------------|
D|--------------------|

PRE-CHORUS

Pre-Chorus
E [--------------------------------------------------------------------------]
B [--------------------------------------------------------------------------]
G [-5-5-5-5--5-5--5-7-7-----7-7-7/-5-5-5-5-5--5-5--5-4-4-4-5/5/5-5/5/5-4-4-4-]
D [-5-5-5-5--5-5--5-7-7-----7-7-7/-5-5-5-5-5--5-5--5-4-4-4-5/5/5-5/5/5-4-4-4-]
A [-3-3-3-3--3-3--3-5-5-----5-5-5/-3-3-3-3-3--3-3--3-2-2-2-3/3/3-3/3/3-2-2-2-]
D [--------------------------------------------------------------------------]


E [-----------------------]
B [-----------------------]
G [-4/4/4-x~--------------]
D [-4/4/4-x~--------------]
A [-2/2/2-x~--------------]
D [-----------------------]


CHORUS

E [----------------------------------------------------]
B [----------------------------------------------------]
G [-5/5/5/5-5-5-4/4/4/4-4-4----------------------------]
D [-5/5/5/5-5-5-4/4/4/4-4-4-2/2/2/2-2-2-0/0/0/0-0-0----]
A [-3/3/3/3-3-3-2/2/2/2-2-2-2/2/2/2-2-2-0/0/0/0-0-0----]
D [-------------------------2/2/2/2-2-2-0/0/0/0-0-0----]  x3


E [---------------------]
B [---------------------]
G [-5555--4444----------]
D [-5555--4444--2--0----]
A [-3333--2222--2--0----]
D [-------------2--0----]

E [----------------------------]
B [----------------------------]
G [-5/5/5/5-x5-4/4/4/4-x4-4----]
D [-5/5/5/5-x5-4/4/4/4-x4-4----]
A [-3/3/3/3-x3-2/2/2/2-x2-2----]
D [----------------------------]


VERSE 2 (SAME AS VERSE 1)


PRECHORUS


CHORUS


POST-CHORUS

E [-------------------------------------------]
B [-------------------------------------------]
G [-------------------------------------------]
D [-----2-2h3-----2-2h3-----2-2h3----2-2h3----]
A [-----2-2h3-----2-2h3-----2-2h3----2-2h3----]
D [-----2-2h3-----2-2h3-----2-2h3----2-2h3----]


BRIDGE


GUITAR TWO


E [-------------------------------------------------------------------------]
B [-------------------------------------------------------------------------]
G [-5----4--------------5----4--------------4-4-4-5/5/5-5/5/5-4-4-4--4~~----]
D [-5----4----2----0----5----4----2----0----4-4-4-5/5/5-5/5/5-4-4-4--4~~----]
A [-3----2----2----0----3----2----2----0----2-2-2-3/3/3-3/3/3-2-2-2--2~~----]
D [-----------2----0--------------2----0------------------------------------]


GUITAR ONE (10s, 11s, and 12s tabbed)

E [---------------------------------------------------------------------|
B [---------------------------------5-0-0-7-0-0-8-0-0-10-0-0-13-0-12-0--|
G [-----121211111212---121211111212-------------------------------------|
D [1010--------------99-------------------------------------------------|
A [---------------------------------------------------------------------|
D [---------------------------------------------------------------------|


   ********************************              *=Palm muted

E [-10-8-7h8p7-----------15~~14~~17~~15~~-----11-11---------------------]
B [-----------8h10/7~~--------------------15~~-----13/12-13p12/10h12----]
G [---------------------------------------------------------------------]
D [---------------------------------------------------------------------]
A [---------------------------------------------------------------------]
D [---------------------------------------------------------------------]

E [-14--15--17--20--19~~~~----]
B [---------------------------]    <---Tremolo Picking
G [---------------------------]
D [---------------------------]
A [---------------------------]
D [---------------------------]

Piano, then...


E [--------------------------------------------------------]
B [--------------------------------------------------------]
G [---5/4---5/4y-------------------------------------------]
D [-2-----4-----5h7/4/7/5/4/7/5/4/5/4/0----(huh huh)-------]
A [--------------------------------------------------------]
D [--------------------------------------------------------]


FINAL CHORUS (A bit different)

BOTH GUITARS

E [----------------------------------------------------]
B [----------------------------------------------------]
G [-5/5/5/5-5-5-4/4/4/4-4-4----------------------------]
D [-5/5/5/5-5-5-4/4/4/4-4-4-2/2/2/2-2-2-0/0/0/0-0-0----]
A [-3/3/3/3-3-3-2/2/2/2-2-2-2/2/2/2-2-2-0/0/0/0-0-0----]
D [-------------------------2/2/2/2-2-2-0/0/0/0-0-0----]  x3

E [-------------------]
B [-------------------]
G [-5----4------------]
D [-5----4----2--0----]
A [-3----2----2--0----]
D [-----------2--0----]  x3


E [------------------]
B [------------------]
G [-5----4-----------]
D [-5----4----2------]
A [-3----2----2------]
D [-----------2------]

Then, for the last part


GUITAR TWO


E [----------------------------]
B [----------------------------]
G [-5/5/5/5-x5-4/4/4/4-x4-4----]
D [-5/5/5/5-x5-4/4/4/4-x4-4----]
A [-3/3/3/3-x3-2/2/2/2-x2-2----]
D [----------------------------]


GUITAR ONE tremolo picks this (Listen to the song to get the exact timing of when to come in)

E [------------------------------------]
B [------------6---7---9--11--12-11----]
G [------------x---x---x---x---x--x----]
D [------------3---4---6---8---9--8----]
A [------------------------------------]
D [------------------------------------]

            
            
Suggest correction
Creating personal tab
Creating personal tab
You can edit any tab online and save it as your Personal.

You can edit, replace or remove any tab part or add personal notes – all changes will be seen only by you.

Personal tabs can be accessed anytime from any device, even offline.
Learn more »
comments
print report bad tab
1 comment total.
+4 reply
sparkyg 10 Oct 22, 2011 08:35 PM

Very nice tab, i just looked it up for the solo, thank you so much. im not an expert but i think it should be 12 instead of a 15 as show here in the solo. sounds right to me.
E--15~~14~~17~~15~~-----11-11-------
B-------------------12~~-----13/12-13p12/10h12----]

guest
You may want to rate the tab now too:
select rating
Wanna post a correction for this tab? Suggest correction