Oops, an error
Loading. Please wait.

Feel Invincible tab

version 1
version 1

Whole song

Interactive

by Skillet
21,268 views 177 this week
9 commentsread comments
1 2 3 4 5
x 16
add to favorites
×
Save as Personal and add changes to this tab that will be seen only by you. Learn more ›
×
You can save this tab as Personal to edit and correct it or add notes. All changes will be seen only by you. Learn more »
launch autoscroll
font size
0
reset
how to read this tab
guitar tuner
edit
Autoscroll
slow
fast
+/-
esc
set tempo
stop
[Intro]

D|----------------------|---------------------|---------------------|---------------------|
A|----------------------|---------------------|---------------------|---------------------|
F|----------------------|---------------------|---------------------|---------------------|
C|---0---0---x-x-x-x----|--0---0---x-x-x-x----|--0---0---x-x-x-x----|--0---0---x-x-x-x----|
G|---0---0---x-x-x-x----|--0---0---x-x-x-x----|--0---0---x-x-x-x----|--0---0---x-x-x-x----|
C|---0---0---x-x-x-x----|--0---0---x-x-x-x----|--0---0---x-x-x-x----|--0---0---x-x-x-x----|


[Verse 1]

D|----------------------|---------------------|---------------------|---------------------|
A|----------------------|---------------------|---------------------|---------------15\---|
F|----------------------|---------------------|---------------------|---------------------| x2
C|----------------------|---------------------|---------------------|---------------------|
G|----------------------|---------------------|---------------------|---------------------|
C|----------------------|---------------------|---------------------|---------------------|


[Pre-Chorus]
                                                 w/delay
D|----------------------|---------------------|-15------------------|---------------------|
A|----------------------|---------------------|---------------------|---------------------|
F|----------------------|---------------------|---------------------|---------------------|
C|----------------------|---------------------|---------------------|---------------------|
G|----------------------|---------------------|---------------------|---------------------|
C|----------------------|---------------------|---------------------|---------------------|

                                                 w/delay
D|----------------------|---------------------|-15------------------|---------------------|
A|--(15)----------------|---------------------|---------------------|---------------------|
F|----------------------|---------------------|---------------------|---------------------|
C|----------------------|---------------------|---------------------|---------------------|
G|----------------------|---------------------|---------------------|---------------------|
C|----------------------|---------------------|---------------------|---------------------|


[Chorus]

D|--------------------|-------------------|-------------------|-------------------|
A|--------------------|-------------------|-------------------|-------------------|
F|--------------------|-------------------|--5-5-5-5-5-5-5-5--|-------------------| x3
C|---0-0-0-0-0-0-0-0--|--3-3-3-3-3-3-3-3--|--5-5-5-5-5-5-5-5--|--5-5-5-5-5-5-5-5--|
G|---0-0-0-0-0-0-0-0--|--3-3-3-3-3-3-3-3--|--3-3-3-3-3-3-3-3--|--5-5-5-5-5-5-5-5--|
C|---0-0-0-0-0-0-0-0--|--3-3-3-3-3-3-3-3--|-------------------|--5-5-5-5-5-5-5-5--|

D|--------------------|-------------------|
A|--------------------|-------------------|
F|---3-3-3-3-3-3-3-3--|-------------------|
C|---3-3-3-3-3-3-3-3--|--5-5-5-5----------|
G|---1-1-1-1-1-1-1-1--|--5-5-5-5----------|
C|--------------------|--5-5-5-5----------|


[Pre-Chorus]

D|----------------------|---------------------|---------------------|---------------------|
A|----------------------|---------------------|---------------------|---------------------|
F|----------------------|---------------------|---------------------|---------------------|
C|---0---0---x-x-x-x----|--0---0---x-x-x-x----|--0---0---x-x-x-x----|--0---0---x-x-x-x----|
G|---0---0---x-x-x-x----|--0---0---x-x-x-x----|--0---0---x-x-x-x----|--0---0---x-x-x-x----|
C|---0---0---x-x-x-x----|--0---0---x-x-x-x----|--0---0---x-x-x-x----|--0---0---x-x-x-x----|


[Verse 2]

D|----------------------|---------------------|---------------------|---------------------|
A|----------------------|---------------------|---------------------|---------------15\---|
F|----------------------|---------------------|---------------------|---------------------| x2
C|----------------------|---------------------|---------------------|---------------------|
G|----------------------|---------------------|---------------------|---------------------|
C|----------------------|---------------------|---------------------|---------------------|


[Pre-Chorus]
                                                 w/delay
D|----------------------|---------------------|-15------------------|---------------------|
A|----------------------|---------------------|---------------------|---------------------|
F|----------------------|---------------------|---------------------|---------------------|
C|----------------------|---------------------|---------------------|---------------------|
G|----------------------|---------------------|---------------------|---------------------|
C|----------------------|---------------------|---------------------|---------------------|

                                                 w/delay
D|----------------------|---------------------|-15------------------|---------------------|
A|--(15)----------------|---------------------|---------------------|---------------------|
F|----------------------|---------------------|---------------------|---------------------|
C|----------------------|---------------------|---------------------|---------------------|
G|----------------------|---------------------|---------------------|---------------------|
C|----------------------|---------------------|---------------------|---------------------|


[Chorus]

D|--------------------|-------------------|-------------------|-------------------|
A|--------------------|-------------------|-------------------|-------------------|
F|--------------------|-------------------|--5-5-5-5-5-5-5-5--|-------------------| x3
C|---0-0-0-0-0-0-0-0--|--3-3-3-3-3-3-3-3--|--5-5-5-5-5-5-5-5--|--5-5-5-5-5-5-5-5--|
G|---0-0-0-0-0-0-0-0--|--3-3-3-3-3-3-3-3--|--3-3-3-3-3-3-3-3--|--5-5-5-5-5-5-5-5--|
C|---0-0-0-0-0-0-0-0--|--3-3-3-3-3-3-3-3--|-------------------|--5-5-5-5-5-5-5-5--|

D|--------------------|-------------------||
A|--------------------|-------------------||
F|---3-3-3-3-3-3-3-3--|-------------------||
C|---3-3-3-3-3-3-3-3--|--5-5-5-5----------||
G|---1-1-1-1-1-1-1-1--|--5-5-5-5----------||
C|--------------------|--5-5-5-5----------||


[Post-Chorus]

D|----------------------|---------------------|---------------------|---------------------|
A|----------------------|---------------------|---------------------|---------------------|
F|----------------------|---------------------|---------------------|---------------------|
C|---0---0---x-x-x-x----|--0---0---x-x-x-x----|--0---0---x-x-x-x----|--0---0---x-x-x-x----|
G|---0---0---x-x-x-x----|--0---0---x-x-x-x----|--0---0---x-x-x-x----|--0---0---x-x-x-x----|
C|---0---0---x-x-x-x----|--0---0---x-x-x-x----|--0---0---x-x-x-x----|--0---0---x-x-x-x----|


[solo]

D|--------------------|--------------------|
A|--10-----10-10-8-6--|--10-----10-10-8-6--|
F|-----7--------------|-----7--------------|
C|--------------------|--------------------|
G|--------------------|--------------------|
C|--------------------|--------------------|

D|--12-10-13-10-15-13-12-10--|--12-8-12-8-13-12-10--|
A|---------------------------|----------------------|
F|---------------------------|----------------------|
C|---------------------------|----------------------|
G|---------------------------|----------------------|
C|---------------------------|----------------------|

D|--17-17-17--13-13-13--10-10-10--13-13-13--|-10-10-10--------------------------|
A|------------------------------------------|-----------10-10-10----------------|
F|------------------------------------------|---------------------10~-----------|
C|------------------------------------------|-----------------------------------|
G|------------------------------------------|-----------------------------------|
C|------------------------------------------|-----------------------------------|

[Bridge]

D|--------------------|-------------------|-------------------|-------------------|
A|--------------------|-------------------|-------------------|-------------------|
F|--------------------|-------------------|--5-5-5-5-5-5-5-5--|-------------------|
C|---0-0-0-0-0-0-0-0--|--3-3-3-3-3-3-3-3--|--5-5-5-5-5-5-5-5--|--5-5-5-5-5-5-5-5--|
G|---0-0-0-0-0-0-0-0--|--3-3-3-3-3-3-3-3--|--3-3-3-3-3-3-3-3--|--5-5-5-5-5-5-5-5--|
C|---0-0-0-0-0-0-0-0--|--3-3-3-3-3-3-3-3--|-------------------|--5-5-5-5-5-5-5-5--|
     note: plays underneath solo
D|--------------------|-------------------|
A|--------------------|-------------------|
F|---3-3-3-3-3-3-3-3--|-------------------|
C|---3-3-3-3-3-3-3-3--|--5-5-5-5----------|
G|---1-1-1-1-1-1-1-1--|--5-5-5-5----------|
C|--------------------|--5-5-5-5----------|
                                 note: rest through remainder of bridge

                                                                 
[Chorus]

D|--------------------|-------------------|-------------------|-------------------|
A|--------------------|-------------------|-------------------|-------------------|
F|--------------------|-------------------|--5-5-5-5-5-5-5-5--|-------------------| x5
C|---0-0-0-0-0-0-0-0--|--3-3-3-3-3-3-3-3--|--5-5-5-5-5-5-5-5--|--5-5-5-5-5-5-5-5--|
G|---0-0-0-0-0-0-0-0--|--3-3-3-3-3-3-3-3--|--3-3-3-3-3-3-3-3--|--5-5-5-5-5-5-5-5--|
C|---0-0-0-0-0-0-0-0--|--3-3-3-3-3-3-3-3--|-------------------|--5-5-5-5-5-5-5-5--|

D|--------------------|-------------------|
A|--------------------|-------------------|
F|---3-3-3-3-3-3-3-3--|-------------------|
C|---3-3-3-3-3-3-3-3--|--5-5-5-5----------|
G|---1-1-1-1-1-1-1-1--|--5-5-5-5----------|
C|--------------------|--5-5-5-5----------|

additional credits: solo tabbed by tdktkd

************************************

| x    Dead note
| (n)  Ghost note
| \    Slide down

************************************

            
            
Suggest correction
Creating personal tab
Creating personal tab
You can edit any tab online and save it as your Personal.

You can edit, replace or remove any tab part or add personal notes – all changes will be seen only by you.

Personal tabs can be accessed anytime from any device, even offline.
Learn more »
comments
print report bad tab
9 comments total. Showing first comments.
0 reply
tdktkd 68 May 21, 2016 06:25 AM

[Solo]

D|--------------------|--------------------|
A|--10-----10-10-8-6--|--10-----10-10-8-6--|
F|-----7--------------|-----7--------------|
C|--------------------|--------------------|
G|--------------------|--------------------|
C|--------------------|--------------------|

D|--12-10-13-10-15-13-12-10--|----8-12-8-13-12-10--|
A|---------------------------|---------------------|
F|---------------------------|---------------------|
C|---------------------------|---------------------|
G|---------------------------|---------------------|
C|---------------------------|---------------------|

D|--17x4-13x4-10x4-13x4-|-10x4--------------------|
A|----------------------|------10x4---------------|
F|----------------------|-----------10~-----------|
C|----------------------|-------------------------|
G|----------------------|-------------------------|
C|----------------------|-------------------------|

+2 reply
josephdaniel91 10 May 23, 2016 09:03 AM

hey ..i need help... i want this tab in GP5 format! (power tab) please can you make it?

0 reply
selenab.258 10 May 09, 2017 04:34 PM

I'm confused, why does it say regular tunning at the top and then it's different when the music starts

guest
You may want to rate the tab now too:
select rating
Wanna post a correction for this tab? Suggest correction