Oops, an error
Loading. Please wait.

Feel Invincible Tab

version 4
version 4

Whole song

Interactive

100 views 9 this week
1 commentread comment
1 2 3 4 5
1 last vote to show rating
add to favorites
launch autoscroll
font size
0
reset
how to read this tab
guitar tuner
Autoscroll
slow
fast
+/-
esc
set tempo
stop
Help us to improve Ultimate-Guitar.com Take our survey!
×
Author
Difficulty
Tuning
intermediate
C G C F A D
About this tab version
The solo has been edited in this version. Was this info helpful? Yes No
| x   Dead note
| \   Slide down
| ~   Vibrato

[Intro]

D|----------------------------|    D|--------------------------|
A|----------------------------|    A|--------------------------|
F|----------------------------|    F|--------------------------|
C|0--0--x-x-x-x--0--0-x-x-x-x-| x4 C|0--0--x-x-x-x--0--0--0--0-|
G|0--0--x-x-x-x--0--0-x-x-x-x-|    G|0--0--x-x-x-x--0--0--0--0-| 
C|0--0--x-x-x-x--0--0-x-x-x-x-|    C|0--0--x-x-x-x--0--0--0--0-|
        1st guitar              the 4th time the 2nd guitar places this^

[Verse]

D|-------------------------|-------------------------|-------------------------|-------------------------|
A|-------------------------|-------------------------|-------------------------|--------------------15~\-|
F|-------------------------|-------------------------|-------------------------|-------------------------|
C|-------------------------|-------------------------|-------------------------|-------------------------| x3
G|-------------------------|-------------------------|-------------------------|-------------------------|
C|-------------------------|-------------------------|-------------------------|-------------------------|

D|-------------------------|-------------------------|-------------------------|-------------------------|
A|-------------------------|-------------------------|-------------------------|15----15----15----15-----|
F|-------------------------|-------------------------|-------------------------|-------------------------|
C|-------------------------|-------------------------|-------------------------|-------------------------| 
G|-------------------------|-------------------------|-------------------------|-------------------------|
C|-------------------------|-------------------------|-------------------------|-------------------------|

[Chorus]

D|-------------------------|-------------------------|-------------------------|-------------------------|
A|-------------------------|-------------------------|-------------------------|-------------------------|
F|-------------------------|-------------------------|-------------------------|-------------------------|
C|0-----0-----0-----0------|3-----3-----3-----3------|10----10----10----10-----|5-----5-----5-----5------|x3
G|0-----0-----0-----0------|3-----3-----3-----3------|10----10----10----10-----|5-----5-----5-----5------|
C|0-----0-----0-----0------|3-----3-----3-----3------|10----10----10----10-----|5-----5-----5-----5------|

D|-------------------------|-------------------------|
A|-------------------------|-------------------------|
F|-------------------------|-------------------------|
C|8-----8-----8-----8------|5-----5-----5-----5------|
G|8-----8-----8-----8------|5-----5-----5-----5------|
C|8-----8-----8-----8------|5-----5-----5-----5------|

[Pre-Chorus] 

D|----------------------------|    D|--------------------------|
A|----------------------------|    A|--------------------------|
F|----------------------------|    F|--------------------------|
C|0--0--x-x-x-x--0--0-x-x-x-x-| x2 C|0--0--x-x-x-x--0--0--0--0-|
G|0--0--x-x-x-x--0--0-x-x-x-x-|    G|0--0--x-x-x-x--0--0--0--0-| 
C|0--0--x-x-x-x--0--0-x-x-x-x-|    C|0--0--x-x-x-x--0--0--0--0-|
        1st guitar              the 4th time the 2nd guitar places this^

[Verse 2]

D|-------------------------|-------------------------|-------------------------|-------------------------|
A|-------------------------|-------------------------|-------------------------|--------------------15~\-|
F|-------------------------|-------------------------|-------------------------|-------------------------|
C|-------------------------|-------------------------|-------------------------|-------------------------| x3
G|-------------------------|-------------------------|-------------------------|-------------------------|
C|-------------------------|-------------------------|-------------------------|-------------------------|

D|-------------------------|-------------------------|-------------------------|-------------------------|
A|-------------------------|-------------------------|-------------------------|15----15----15----15-----|
F|-------------------------|-------------------------|-------------------------|-------------------------|
C|-------------------------|-------------------------|-------------------------|-------------------------| 
G|-------------------------|-------------------------|-------------------------|-------------------------|
C|-------------------------|-------------------------|-------------------------|-------------------------|

[Chorus]

D|-------------------------|-------------------------|-------------------------|-------------------------|
A|-------------------------|-------------------------|-------------------------|-------------------------|
F|-------------------------|-------------------------|-------------------------|-------------------------|
C|0-----0-----0-----0------|3-----3-----3-----3------|10----10----10----10-----|5-----5-----5-----5------|x3
G|0-----0-----0-----0------|3-----3-----3-----3------|10----10----10----10-----|5-----5-----5-----5------|
C|0-----0-----0-----0------|3-----3-----3-----3------|10----10----10----10-----|5-----5-----5-----5------|

D|-------------------------|-------------------------|
A|-------------------------|-------------------------|
F|-------------------------|-------------------------|
C|8-----8-----8-----8------|5-----5-----5-----5------|
G|8-----8-----8-----8------|5-----5-----5-----5------|
C|8-----8-----8-----8------|5-----5-----5-----5------|

[Pre-Chorus] 

D|----------------------------|    D|--------------------------|
A|----------------------------|    A|--------------------------|
F|----------------------------|    F|--------------------------|
C|0--0--x-x-x-x--0--0-x-x-x-x-| x2 C|0--0--x-x-x-x--0--0--0--0-|
G|0--0--x-x-x-x--0--0-x-x-x-x-|    G|0--0--x-x-x-x--0--0--0--0-| 
C|0--0--x-x-x-x--0--0-x-x-x-x-|    C|0--0--x-x-x-x--0--0--0--0-|
        1st guitar              the 4th time the 2nd guitar places this^

[Solo]

1.st guitar plays the solo
D|---------------|---------------|12--10-13--10-15--10-17--|10-12--8-12--8-13--12-10-|
A|10-----10--8--6|10-----10--8--6|-------------------------|-------------------------|
F|----7----------|----7----------|-------------------------|-------------------------|
C|---------------|---------------|-------------------------|-------------------------|
G|---------------|---------------|-------------------------|-------------------------|
C|---------------|---------------|-------------------------|-------------------------|

D|17-17-17-13-13-13-10-10-10-13-13-13|10-10-10-----------------------|
A|-----------------------------------|---------10-10-10--------------|
F|-----------------------------------|------------------10~----------|
C|-----------------------------------|-------------------------------|
G|-----------------------------------|-------------------------------|
C|-----------------------------------|-------------------------------|

2nd guitar plays bridge (almost the same as the last two parts of chorus)
D|-------------------------|-------------------------|-------------------------|-------------------------|
A|-------------------------|-------------------------|-------------------------|-------------------------|
F|-------------------------|-------------------------|-------------------------|-------------------------|
C|0-----0-----0-----0------|3-----3-----3-----3------|10----10----10----10-----|5-----5-----5-----5------|
G|0-----0-----0-----0------|3-----3-----3-----3------|10----10----10----10-----|5-----5-----5-----5------|
C|0-----0-----0-----0------|3-----3-----3-----3------|10----10----10----10-----|5-----5-----5-----5------|

D|-------------------------|-------------------------|
A|-------------------------|-------------------------|
F|-------------------------|-------------------------|
C|8-----8-----8-----8------|5-----5------------------|
G|8-----8-----8-----8------|5-----5------------------|
C|8-----8-----8-----8------|5-----5------------------|
                            Here is the difference ^ two chords are missing

[Chorus]

D|-------------------------|-------------------------|-------------------------|-------------------------|
A|-------------------------|-------------------------|-------------------------|-------------------------|
F|-------------------------|-------------------------|-------------------------|-------------------------|
C|0-----0-----0-----0------|3-----3-----3-----3------|10----10----10----10-----|5-----5-----5-----5------|x5
G|0-----0-----0-----0------|3-----3-----3-----3------|10----10----10----10-----|5-----5-----5-----5------|
C|0-----0-----0-----0------|3-----3-----3-----3------|10----10----10----10-----|5-----5-----5-----5------|

D|-------------------------|-------------------------|
A|-------------------------|-------------------------|
F|-------------------------|-------------------------|
C|8-----8-----8-----8------|5-----5-----5-----5------|
G|8-----8-----8-----8------|5-----5-----5-----5------|
C|8-----8-----8-----8------|5-----5-----5-----5------|

[Outro] 

D|----------------------------|    D|--------------------------|
A|----------------------------|    A|--------------------------|
F|----------------------------|    F|--------------------------|
C|0--0--x-x-x-x--0--0-x-x-x-x-| x2 C|0--0--x-x-x-x--0--0--0--0-|
G|0--0--x-x-x-x--0--0-x-x-x-x-|    G|0--0--x-x-x-x--0--0--0--0-| 
C|0--0--x-x-x-x--0--0-x-x-x-x-|    C|0--0--x-x-x-x--0--0--0--0-|
        1st guitar              the 4th time the 2nd guitar places this^
Suggest correction
Give kudos to tab author, rate the tab!
1 2 3 4 5
comments
print report bad tab
1 comment total.
0 reply
Adrenaline16 56 Oct 26, 2016 07:35 AM

Sweet Tab bro!

guest
You may want to rate the tab now too:
select rating
Wanna post a correction for this tab? Suggest correction